>
 >
Everyday

Everyday Guitar Tabs

Rascal Flatts - Everyday chords, tabs, tablatures, lyrics

Guitar lessons | Add/correct | Request | Top 50 tabs Artists:  A B C D E F G H I J K L M N O P Q R S T U V W X Y Z 0-9

Everyday Guitar Tabs – Rascal Flatts

CD, Sheet music, Poster

Do you like Everyday? Share with your friends now
ChordsTabsUkulele
-------------------------------------------------------------------------------
                             Every Day - Rascal Flatts
-------------------------------------------------------------------------------



This is how I play the song.
Hope you like it.



Tuning: Capo on 4th fret



Chord shapes used-

 Amaj9   C#m7    Bsus4   F#m11   Asus2    D5       A
|--0--| |--0--| |--0--| |--0--| |--0--| |--x--| |--0--|
|--0--| |--0--| |--0--| |--0--| |--0--| |--3--| |--2--|
|--1--| |--6--| |--4--| |--2--| |--2--| |--2--| |--2--|
|--2--| |--6--| |--4--| |--2--| |--2--| |--0--| |--2--|
|--0--| |--4--| |--2--| |--x--| |--0--| |--x--| |--0--|
|--X--| |--X--| |--X--| |--2--| |--x--| |--x--| |--x--|





Intro-
e|------0------------0------------0------------0------------0-------|
B|----0---0--------0---0--------0---0--------0---0--------0---0-----|
G|1h2-------2--1h2-------2--1h2-------2--1h2-------2--1h2-------2---|
D|2------------2----------------------------------------------------|
A|--------------------------0------------2------------4-------------|
E|------------------------------------------------------------------|

e|------0-------|
B|----0---0-----|
G|1h2-------2---|
D|--------------|
A|0-------------|
E|--------------|




Verse-
E                          Amaj9
   You could have bowed out gracefully 
        C#m7               Asus2
But you didn't 
E                                Amaj9
   You knew enough to know to leave well enough alone 
C#m7                         Asus2
                    But you wouldn't 
   E                           Amaj9
I drive myself crazy trying to stay out of my own way
     C#m7
The messes that I made
        Bsus4
But my secrets are so safe
    Asus2                                           
The only one who gets me
C#m7                               
     Yeah, you get me
Asus2               Bsus4
    It's amazing to me



(or to fingerpick the verse play this)
e|------0------------0------------0------------0-------|
B|----0---0--------0---0--------0---0--------0---0-----|
G|1h2-------2--1h2-------2--1h2-------2--1h2-------2---|
D|2----------------------------------------------------| x2
A|-------------0------------4------------0-------------|
E|0----------------------------------------------------|

e|------0------------0------------0------------0-------|
B|----0---0--------0---0--------0---0--------0---0-----|
G|1h2-------2--1h2-------2--1h2-------2--1h2-------2---|
D|2----------------------------------------------------|
A|-------------0------------4------------2-------------|
E|0----------------------------------------------------|

e|------0------------0------------0------------0-------|
B|----0---0--------0---0--------0---0--------0---0-----|
G|1h2-------2--1h2-------2--1h2-------2--1h2-------2---|
D|-----------------------------------------------------|
A|0------------4------------0------------2-------------|
E|-----------------------------------------------------|






Chorus-
          E                       Asus2
How every day
      C#m7                         Asus2
Every day
      E       Bsus4            Amaj9
Every day you save             my life

(Starts on the "My life" lyric at the end of the chorus)
e|------0------------0------------0------------0---|
B|----0---0--------0---0--------0---0--------0-----|
G|1h2-------2--1h2-------2--1h2-------2--1h2-------|
D|-------------------------------------------------|
A|0------------2------------4------------0---------|
E|-------------------------------------------------|





Verse-
E                           Amaj9
   I come around all broken down and crowded out
C#m7                       Asus2
     And you're a comfort
    E                          Amaj9
Sometimes the place I go is so deep and dark and desperate
        C#m7
I don't know
        Asus2
I don't know





Chorus-
          E              Asus2
How every day
      C#m7               Asus2
Every day
      E       Bsus4                                C#m7
Every day you save                                my life

    Asus2
Sometimes
 



Bridge-
  E                          Bsus4
I swear I don't know if I am coming or going
        C#m7                     Asus2
But you always say something without even knowing
          E
That I am hanging onto your words with all my might
         Bsus4
And it's alright
          Asus2
Yeah I'm alright
    C#m7     Bsus4
For one more night



      D5       A       E
Every day...
e|---------------------------0-------------0-------|
B|-------------------------0---0---------0---0-----|
G|---------------------1-2-------2---1-2-------2---|
D|-------------------------------------------------|
A|-------------------------------------------------|
E|-------------------------------------------------|



          D5          A           E
e|------------------------------------------0---0-0---|
B|------------------------------------------4h5-5-5---|
G|1h2-1-------1h2-1-------1h2-1-2-2h4-----------------|
D|------2-0---------2-----------------1h2-------------|
A|--------------------4-------------------------------|
E|----------------------------------------------------|

          D5          A           F#m11    Asus2
e|4h5-4-------4h5-4-------4h5-4-5-5h7-5-4-5-5h7-------|
B|------5-3---------5---------------------------------|
G|--------------------6-------------------------------|
D|----------------------------------------------------|
A|----------------------------------------------------|
E|----------------------------------------------------|




Every day...
e|------0------------0------------0------------0------------0-----0-----0----|
B|----0---0--------0---0--------0---0--------0---0--------0---0-----0--------|
G|1h2-------2--1h2-------2--1h2-------2--1h2-------2--1h2-------2-----2------|
D|2---------------------------------------------------2----------------------|
A|-------------0------------4------------0-----------------------------------|
E|---------------------------------------------------------------------------|




Outro-
      E            Asus2
Every day... every day
      C#m7         Asus2
Every day... every day
      E          Asus2        C#m7     Bsus4
Every day... you save me, you save me, oh ohhh oh


E            Asus2
C#m7         Asus2
             Every day...

E            Asus2       C#m7         Bsus4
                  Every, every, every day

E            Asus2
C#m7         Asus2

E            Asus2
C#m7         Bsus4

E            Asus2
C#m7         Asus2

E            Asus2


      C#m7    Bsus4
Every day you save my life






*I'll update the rest soon*


| /  slide up
| \  slide down
| h  hammer-on
| p  pull-off
| ~  vibrato
| +  harmonic
| x  Mute note
===============================================================================





Comments


Popular Rascal Flatts tabs & chords
Life Is A Highway Bass Tabs
Bless The Broken Road 5 Chords
Come Wake Me Up 3 Chords
Praying For Daylight Chords
You Chords
Bless The Broken Road 3 Tabs
Fast Cars And Freedom (tab) Tabs
Its Not Just Me Tabs
Prayin' For Daylight Tabs
Yes I Do Ukulele


Song lyrics



↑ Back to top | Tablatures and chords are parodies/interpretations of the original songs. You may use it for private study, scholarship, research or language learning purposes only
© 2014 AZChords.com Contact us | Privacy policy | DMCA | Add/correct tabs | Request tabs | Top 50 tabs