» » »

Cool Thing Tabs (ver.1)

Artists:  A B C D E F G H I J K L M N O P Q R S T U V W X Y Z # 

Cool Thing Tabs (ver.1)

Rascal Flatts
Rating:
0/5 (0 votes)

Hard to play? Try these video lessons and learn fast.
                Rascal Flatts - Cool Thing Intro

Capo 3


Intro, and some Verse
e|-------------------------0--------------------------------|
B|-----------0--0---0--0-----3-2-----0--0---0--0------------|
G|--------------------------4-4--------------------2--------|
D|-----------4--4---0--0--2----------4--4---0--0--2---------|
A|-----0h2-2-------------0---------2-------------0----------|
E|--0h2-----------3-----------------------3-----------------|


Played during some parts of the
verse, when the above is not being played...
e|----------------------------------------------------------|
B|--3-3---3-3-3---3-2-2-------------------------------------|
G|--4-4---4-0-0---0-2-2-------------------------------------|
D|----------------------------------------------------------|
A|----------------------------------------------------------|
E|----------------------------------------------------------|


Picking during the chorus...
e|------------------0---------------------------------------|
B|--3---3---2-3-2-------2-3---------------------------------|
G|----2---2-------2---2-------------------------------------|
D|----------------------------------------------------------|
A|----------------------------------------------------------|
E|----------------------------------------------------------|
            
Hard to play? Try these video lessons and learn fast. | Correct




comments powered by Disqus
↑ Back to top | Tablatures and chords are parodies/interpretations of the original songs. You may use it for private study, scholarship, research or language learning purposes only