» » »

Bless The Broken Roads Tabs (ver.5)

Artists:  A B C D E F G H I J K L M N O P Q R S T U V W X Y Z # 

Bless The Broken Roads Tabs (ver.5)

Rascal Flatts
Rating:
3/5 (6 votes)

Hard to play? Try these video lessons and learn fast.
                  Here is my arrangement of Rascal Flatt's Bless the broken road for solo fingerstyle 
Hear this tab played at:

                                Bless the broken road


 I|----3--------3----------|-------------0-------------|-1--------1-----0-----------------------|
 N|-------1-----1-----1----|-0-----1--3--1--------1--3-|----1-----3-----0--1--------------1-----|
 T|-0--------0-----------0-|-0-----------2-----2-------|-------2-----------0-----------0-----0--|
 R|----2-----------3-------|---------------------------|-0-----------------------2--2-----------|
 O|------------------------|----------------0----------|----------------------3-----------------|
  |------------------------|----3----------------------|-------------3--------------------------|

 V|-------------------0-|-------------0-------------|----------------------|----------------------|
 E|----1-----1-----3----|-3-----1-----1-----3--1----|----1--------0h1p0----|-1--------------1-----|
 R|----0-----0----------|-0--------0--2-----------2-|----2-----2---------0-|-0-----------0-----0--|
 S|-------2-------------|---------------------------|-------3--------------|-------2--2-----------|
 E|-3-----------3-------|----------------0----------|----------------------|----3-----------------|
 1|---------------------|----3----------------------|-1-----------3--------|----------------------|

 V|-------------------0-|-------------0-------------|---------------------|------------------|
 E|----1-----1-----3----|-3-----1-----1-----3--1----|-1-----1--1-----0--1-|---------------1--|
 R|----0-----0----------|-0--------0--2-----------2-|-2-----2--0-----0--0-|------------0-----|
 S|-------2-------------|---------------------------|----3--------0-------|----2--0h2--------|
 E|-3-----------3-------|----------------0----------|---------------------|-3----------------|
 2|---------------------|----3----------------------|-1--------3----------|------------------|

V|--------------------|---------------------------|------------------------|----0------------------|
E|-1--1-----0h1-----1-|-0-----0-----------------0-|-------------------0--1-|----1--1--3---------3--|
R|-2--2-----2-------2-|-0-----0--2--0--------0----|-2--0-----0-----0-----2-|----2-----------------0|
S|-------2------------|-------------------0-------|-------3----------------|-0--------------0------|
E|-0-------------0----|---------------------------|------------------------|-----------------------|
3|--------------------|----3-----------3----------|-1-----------0----------|-------------3---------|

 V|-------------------0-|-------------0-------------|-----------------------------|
 E|----1-----1-----3----|-3-----1-----1-----3--1----|----1--------0h1p0-----1-----|
 R|----0-----0----------|-0--------0--2-----------2-|----2-----2---------0--0-----|
 S|-------2-------------|---------------------------|-------3---------------------|
 E|-3-----------3-------|----------------0----------|--------------------------3--|
 4|---------------------|----3----------------------|-1-----------3---------------|

 C|----0--1--3--1-----0h1p0----|-------------0--------------0-|----0--1--3--1-----0h1p0--------|
 H|----1--3--5--1------------1-|-------1--3-----3-----3--1--1-|----1--3--5--1------------1-----|
 O|-------------2-----0------0-|-------0-----0--0-----0-----0-|-------------2-----0------2-----|
 R|-2--------------------------|----2--------------0----------|-2--------------3---------------|
 U|----------------------------|-3--------------------------3-|-----------------------------0--|
 S|----------------1-----------|----------------3-------------|-------------1------------------|

|----------0--1-----0-------------|-0--1--3--1-----0h1p0-------|----------0--------------0-------|
|----1--3-----3-----3-----3-------|-3--3--5--1------------1----|----1--3-----3-----3--1--1-------|
|----2-----2--2--2-----2--------0-|----------2-----0------0----|-0--------0--0-----0-----2------2|
|-2-----------0--------------0----|-------------3--------------|----2-----------0------------2---|
|-------------------3-----2-------|--------------------------3-|-------------------------0-------|
|---------------------------------|----------1-----------------|-------------3-------------------|

  |-0--------1--------0--------1-----3--|
  |----3--1--3-----3--------3--1-----0--|
  |----------2--2--------2-----2--0--0--|
  |----------0--------2--------3-----0--|
  |-0--2--3--------------------------2--|
  |----------------------------------3--|

    that god...
  |----------------------------------0------------------------------------------|
  |----------1--1-----0--3-----1-----1-----3--1--------1--------0h1p0-----1-----|
  |-2--0--------------0--0--------0--2-----------2-----2-----2---------0--0-----|
  |-------2--------2--------------------------------------3---------------------|
  |----3--------------------------------0------------------------------------3--|
  |-------------------------3-----------------------1-----------3---------------|

  Repeat intro end on C
            
Hard to play? Try these video lessons and learn fast. | Correct




comments powered by Disqus
↑ Back to top | Tablatures and chords are parodies/interpretations of the original songs. You may use it for private study, scholarship, research or language learning purposes only