>
 >
Blessed The Broken Road (acoustic)

Blessed The Broken Road (acoustic) Guitar Tabs

Rascal Flatts - Blessed The Broken Road (acoustic) chords, tabs, tablatures, lyrics

Guitar lessons | Add/correct | Request | Top 50 tabs Artists:  A B C D E F G H I J K L M N O P Q R S T U V W X Y Z 0-9

Blessed The Broken Road (acoustic) Guitar Tabs – Rascal Flatts

CD, Sheet music, Poster

Do you like Blessed The Broken Road (acoustic)? Share with your friends now
Tabs
Rascal Flatts - Bless The Broken Road Acoustic

Acoustic Version of song created by Michael Hauser


To get timing down.



Standard Tuning

Capo at 4th Fret


Intro/Verse Riff ---play 4 times (2 times as intro, 2 times for each verse)

E--------------------------------------------------------------------
B--3-----3------3-------3-------0---0h1------1-0------------3--------
G----0------0-----0---2-------0---0------0-------0--------0---0---0--
D-----0-------2-----0-------2--------------2-------2----0-------0----  
A--2-----3----------------------------3------------------------------
E--------------------------0--------------------------3--------------


I set out on a narrow way many years ago
Hoping I would find true love along the broken road

Bridge: (Play once)

E-----------------------2-------------------------------------
B-------0-------------3---3---3------1--------------3---------
G-----0---0---0-----2-------2------0---0---0------0---0---0--- 
D---2-------0-----0--------------2-------2------0-------0-----
A------------------------------3------------------------------
E-0-------------------------------------------3---------------

But I got lost a time or two
Wiped my brow and kept pushing through

(Play Once)
E--------------------------------------------------------------------
B--3-----3------3-------3-------0---0h1------1-0------------3--------
G----0------0-----0---2-------0---0------0-------0--------0---0---0--  
D------0------2-----0-------2--------------2-------2----0-------0----
A--2-----3----------------------------3------------------------------
E--------------------------0--------------------------3--------------

I couldn't see how every sign pointed straight to you



Chorus:
(Strum Chords)

      C         G                D         G
Every long lost dream lead me to where you are

           C        Em                   Am  G      D
Others who broke my heart they were like northern stars

            C     G             D      Em
Pointing me on my way into your loving arms


E--------------------------------
B---------1-------1-------1------
G-------2-------0-------0-------- 
D-----2-------0-------2----------
A-2-0-------2-------3------------
E--------------------------------

This much I know is true

E--------------------------------------------------------------------
B--3-----3------3-------3-------0---0h1------1-0------------3--------
G----0------0-----0---2-------0---0------0-------0--------0---0---0--  
D------0------2-----0-------2--------------2-------2----0-------0----
A--2-----3----------------------------3------------------------------
E--------------------------0--------------------------3--------------


That God blessed the broken road
That led me straight to you

Verse 2:

E--------------------------------------------------------------------
B--3-----3------3-------3-------0---0h1------1-0------------3--------
G----0------0-----0---2-------0---0------0-------0--------0---0---0--  
D------0------2-----0-------2--------------2-------2----0-------0----
A--2-----3----------------------------3------------------------------
E--------------------------0--------------------------3--------------

I think about the years I spent just passing through
I'd like to have the time I lost and give it back to you


Bridge: 

E-----------------------2-------------------------------------
B-------0-------------3---3---3------1--------------3---------
G-----0---0---0-----2-------2------0---0---0------0---0---0--- 
D---2-------0-----0--------------2-------2------0-------0-----
A------------------------------3------------------------------
E-0-------------------------------------------3---------------

But you just smile and take my hand
You've been there you understand


E--------------------------------------------------------------------
B--3-----3------3-------3-------0---0h1------1-0------------3--------
G----0------0-----0---2-------0---0------0-------0--------0---0---0--  
D------0------2-----0-------2--------------2-------2----0-------0----
A--2-----3----------------------------3------------------------------
E--------------------------0--------------------------3--------------

It's all part of a grander plan that is coming true

Chorus:
(Strum Chords)

      C         G                D         G
Every long lost dream lead me to where you are

           C        Em                   Am  G      D
Others who broke my heart they were like northern stars

            C     G             D      Em
Pointing me on my way into your loving arms


E--------------------------------
B---------1-------1-------1------
G-------2-------0-------0-------- 
D-----2-------0-------2----------
A-2-0-------2-------3------------
E--------------------------------

This much I know is true

E-----------------------------------------------------
B--3-----3------3-------3-------0---0h1------1-0------
G----0------0-----0---2-------0---0------0-------0----  
D------0------2-----0-------2--------------2-------2--
A--2-----3----------------------------3---------------
E--------------------------0--------------------------


That God blessed the broken road
That led me straight to you


Solo:

C G C G D G C Em Am G D


             C       G
Now I'm just rolling home

        D      Em
Into my lovers arms



E--------------------------------
B---------1-------1-------1------
G-------2-------0-------0-------- 
D-----2-------0-------2----------
A-2-0-------2-------3------------
E--------------------------------

This much I know is true


E--------------------------------------------------------------------
B--3-----3------3-------3-------0---0h1------1-0------------3--------
G----0------0-----0---2-------0---0------0-------0--------0---0---0--  
D------0------2-----0-------2--------------2-------2----0-------0----
A--2-----3----------------------------3------------------------------
E--------------------------0--------------------------3--------------


That God blessed the broken road
That led me straight to you


E--------------------------------------------------------------------
B--3-----3------3-------3-------0---0h1------1-0------------3--------
G----0------0-----0---2-------0---0------0-------0--------0---0---0--  
D------0------2-----0-------2--------------2-------2----0-------0----
A--2-----3----------------------------3------------------------------
E--------------------------0--------------------------3--------------



E--------------------------------------------------------------------
B--3-----3------3-------3-------0---0h1------1-0------------3--------
G----0------0-----0---2-------0---0------0-------0--------0---0---0--  
D------0------2-----0-------2--------------2-------2----0-------0----
A--2-----3----------------------------3------------------------------
E--------------------------0--------------------------3--------------


That God blessed the broken road
That led me straight to you


E--------------------------------------------------------------------
B--3-----3------3-------3-------0---0h1------1-0------------3--------
G----0------0-----0---2-------0---0------0-------0--------0---0---0--  
D------0------2-----0-------2--------------2-------2----0-------0----
A--2-----3----------------------------3------------------------------
E--------------------------0--------------------------3--------------


E--------------------------------------------------------------------
B--3-----3------3-------3-------0---0h1------1-0------------3--------
G----0------0-----0---2-------0---0------0-------0--------0---0---0--  
D------0------2-----0-------2--------------2-------2----0-------0----
A--2-----3----------------------------3------------------------------
E--------------------------0--------------------------3--------------

That God blessed the broken road
That led me straight to you



E-----------------------------------------------------3---
B--3-----3------3-------3-------0---0h1------1-0------3---
G----0------0-----0---2-------0---0------0-------0----0---  
D------0------2-----0-------2--------------2-------2--0---
A--2-----3----------------------------3---------------2---
E--------------------------0--------------------------3---







Comments


Popular Rascal Flatts tabs & chords
Bless The Broken Road 1 Chords
Bless The Broken Road 9 Chords
Every Day 2 Chords
I'm Moving On Chords
My Wish Chords
Shine On Chords
Unstoppable 1 Chords
Fast Cars And Freedom Intro Tabs
What Hurts The Most 5 Tabs
What Hurts The Most Intro 1 Tabs


Song lyrics



↑ Back to top | Tablatures and chords are parodies/interpretations of the original songs. You may use it for private study, scholarship, research or language learning purposes only
© 2014 AZChords.com Contact us | Privacy policy | DMCA | Add/correct tabs | Request tabs | Top 50 tabs