>
 >
I Just Want To Celebrate

I Just Want To Celebrate Bass Tabs

Rare Earth - I Just Want To Celebrate chords, tabs, tablatures, lyrics

Guitar lessons | Add/correct | Request | Top 50 tabs Artists:  A B C D E F G H I J K L M N O P Q R S T U V W X Y Z 0-9

I Just Want To Celebrate Bass Tabs – Rare Earth

CD, Sheet music, Poster

Do you like I Just Want To Celebrate? Share with your friends now
Bass TabsChordsUkulele

                                          
       INTRO                        4X
G-----|------|---------------|---------|
D-----|*-----|-----3---------|---5----*|
A---5-|*-3-5-|-3-5---5---3-5-|-5---5--*|
E-----|------|---------5-----|---------|
                                          
                                                                        
   VERSE                                                     END VERSE
G-----------------------|---------------------|------------------------|
D-------------------5---|-----------------5---|--------------------5---|
A---3h5-5-5-3h5-3h5---5-|-3h5-5-5-3h5-3h5---5-|-7-7-7--5-7-5-7-3-3---5-|
E-----------------------|---------------------|------------------------|
                                                                        
                    
 CHORUS                  THEN:
G-------|--------|       INTRO 1X
D-------|----5---|       VERSE
A---3-5-|--5---5-|       CHORUS
E-------|--------|       INTRO 2X
                    
                                                                               
 BRIDGE                                  BRIDGE END                       2X       THEN:
G---------|-------|-------|---|---|-----------------|-----------------------|      VERSE
D---------|---5---|---5---|---|---|-----------------|*-----------------5---*|
A-----3-5-|-5---5-|-5---5-|-5-|-5-|-5-5-5-5-5-5-5-5-|*-3h5-5-5-3h5-3h5---5-*|
E---5-----|-------|-------|---|---|-----------------|-----------------------|
                                                                               
                                                 
                                           3X
G-------|-----|------|---------------|--------|
D-------|-----|*-----|-----3---------|---5---*|
A---3-5-|-3-5-|*-3-5-|-3-5---5---3-5-|-5---5-*|
E-------|-----|------|---------5-----|--------|
                                                 
                                                                           
 BRIDGE 
G-------------------------------|-----------|---|---|---|-----------------|
D-------5-------------5---------|-----5-----|---|---|---|-----------------|
A---5-5---5---3-5-5-5---5---3-5-|-5-5---5-5-|-5-|-5-|-5-|-5-5-5-5-5-5-5-5-|
E-----------5-------------5-----|-----------|---|---|---|-----------------|
                                                                           
                                                               
 ROUND AND ROUND AND ROUND                REST/NO BASS 
G-------7-------7-------7-----7------|----------------------|
D-----7---7---7---7---7-----7---7----|----------------------|
A---5-------5-------5-----5-------5--|----R-----------------|
E------------------------------------|----------------------|
                                                               
                                                                           
 OUTRO       AD LIB FADE OUT 
G-------|---------------|-------------------|---------------------|-------|
D-------|-----3---------|---5---------------|-----3---------------|---5---|
A---3-5-|-3-5---5---3-5-|-5---5---------3-5-|-3-5---5---3-5-5-3-5-|-5---5-|
E-------|---------5-----|-------------------|---------5-----------|-------|





Comments


Popular Rare Earth tabs & chords
Born To Wander Bass Tabs
Get Ready Chords
I Just Want To Celebrate Chords
If I Die Chords
Get Ready Ukulele
I Just Want To Celebrate Ukulele
If I Die Ukulele


Song lyrics



↑ Back to top | Tablatures and chords are parodies/interpretations of the original songs. You may use it for private study, scholarship, research or language learning purposes only
© 2014 AZChords.com Contact us | Privacy policy | DMCA | Add/correct tabs | Request tabs | Top 50 tabs