>
 >
Ghost Under Rocks

Ghost Under Rocks Bass Tabs

Ra Ra Riot - Ghost Under Rocks chords, tabs, tablatures, lyrics

Guitar lessons | Add/correct | Request | Top 50 tabs Artists:  A B C D E F G H I J K L M N O P Q R S T U V W X Y Z 0-9

Ghost Under Rocks Bass Tabs – Ra Ra Riot

CD, Sheet music, Poster

Do you like Ghost Under Rocks? Share with your friends now
Bass TabsChordsUkulele
Ra Ra Riot
The Rhumb Line
Key: Bb Minor

Intro
G---5---5---5---5--|
D------------------|
A-3---3---3---3----|
E------------------|

G---8---8---8---8--------------------|
D----------------------8---8---8---8-|
A-6---6---6---6----------------------|
E--------------------6---6---6---6---|

Verse
G---------------------------------|
D---------------------------------|
A---------------------------------|
E-1-1-1-1-1-1-1-1-1-1-1-1-1-1-1-1-|

G-------------------------------------------------|
D-------------------------------------------------|
A-------------------------------------------------|
E-11-11-11-11-11-11-11-11-11-11-11-11-11-11-11-11-|

Pre-chorus
G-----------------------------------------------------------------|
D-----------------------------------------------------------------|
A-----------------------------------------------------------------|
E-1-1-1-1-1-1-1-1-1-1-1-1-1-1-1-1-6-6-6-6-6-6-6-6-6-6-6-6-6-6-6-6-|

Chorus
G-----------------------------------------8---8---8---8---8---8---8---8--|
D---10---10---10--10---10--10---10--10-----------------------------------|
A---------------------------------------6---6---6---6---6---6---6---6----|
E-8----8----8----8----8---8----8----8------------------------------------|

G----------------------------------------------------------------|
D---8---8---8---8---8---8---8---8----6---6---6---6---6---6---6---|
A----------------------------------------------------------------|
E-6---6---6---6---6---6---6---6----4---4---4---4---4---4---4---4-|


G------------------------------------------------------------------------|
D--10---10---10--10--10--10--10--10---8---8---8---8---8---8---8---8------|
A------------------------------------------------------------------------|
E-8----8----8----8----8----8----8----8---6---6---6---6---6---6---6---6---|

Bridge
G-----------------------------------------------------------------|
D-----------------------------------------------------------------|
A-----------------------------------------------------------------|
E-4-4-4-4-4-4-4-4-4-4-4-4-4-4-4-4-3-3-3-3-3-3-3-3-3-3-3-3-3-3-3-3-|

G-----------------------------------------------------------------|
D-----------------------------------------------------------------|
A-----------------------------------------------------------------|
E-1-1-1-1-1-1-1-1-1-1-1-1-1-1-1-6-8-8-8-8-8-8-8-8-8-8-8-8-8-8-8-8-|
Repeat

I didnít exactly type out the timing of the chord changes, but you can just listen for
The bridge I provided is just the basic roots as far as I could figure, but itís in C
so take what you want from that. I wouldnít mind someone coming in an editing my work to 
what I started.





Comments


Popular Ra Ra Riot tabs & chords
Dance With Me Bass Tabs
The Orchard Bass Tabs
Can You Tell Chords
Dying Is Fine Chords
Is It Too Much Chords
Is It Too Much 1 Chords
Can You Tell Tabs
Dying Is Fine Tabs
Boy Ukulele
Winter 05 Ukulele


Song lyrics



↑ Back to top | Tablatures and chords are parodies/interpretations of the original songs. You may use it for private study, scholarship, research or language learning purposes only
© 2014 AZChords.com Contact us | Privacy policy | DMCA | Add/correct tabs | Request tabs | Top 50 tabs