» » »

Love Is All Tabs (ver.1)

Artists:  A B C D E F G H I J K L M N O P Q R S T U V W X Y Z # 

Love Is All Tabs (ver.1)

The Rapture
Rating:
4/5 (1 vote)
Tabs too difficult? Try these video lessons and learn fast.
                Hey I'm not a huge rapture fan, I'm not really into their shouty cowbell dance music that
fills the rest of the album, but that said I do love this song. Anyway feel free to email
me with corrections or stuff or other songs that I might like. Hope you enjoy

---
CAPO AT 3RD FRET
---
Chords Used (Relation to Capo):

E |-0--2---4--5--------
B |-1--2---4--5--------
G |-0--2---4--6--------   
D |-2--4---6--7--------
A |-3--4---6--7--------
E |-0--2---4--5--------
    C F#m G#m A
--------------------------------

Intro 

E |-----------------
B |-----------------
G |-----------------     (x16)
D |-----------------
A |-----0-0-----0-0-
E |-2-2-----2-2-----


E |-2-2--2h3-2---0-0--0---0-----------------------|
B |-3-3--3---3---1-1--1---1---3-------3-3-----3---|
G |-2-2--2---2---0-0--0---0---0-----0---0-------0-| (x2)
D |-0-0--0---0---2-2--2h3-2---0h2-2-----0h2-2-----|
A |--------------3-3--3---3---2h3-------2h3-------|
E |--------------0-0--0---0---3p0-------3p0-------|

Verse

E |-2-2--2h3-2---0-0--0---0-----------------------|
B |-3-3--3---3---1-1--1---1---3-------3-3-----3---|
G |-2-2--2---2---0-0--0---0---0-----0---0-------0-| (x2)
D |-0-0--0---0---2-2--2h3-2---0h2-2-----0h2-2-----|
A |--------------3-3--3---3---2h3-------2h3-------|
E |--------------0-0--0---0---3p0-------3p0-------|
  
Love is all my crippled soul will ever need
Love is all my crippled soul will ever need

Bridge

C           F#m                G#m
It's ok     To feel this way   

C           F#m                A
It's ok     it doesn't matter anyway   


E |-2-2--2h3-2---0-0--0---0-----------------------|
B |-3-3--3---3---1-1--1---1---3-------3-3-----3---|
G |-2-2--2---2---0-0--0---0---0-----0---0-------0-| (x5)
D |-0-0--0---0---2-2--2h3-2---0h2-2-----0h2-2-----|
A |--------------3-3--3---3---2h3-------2h3-------|
E |--------------0-0--0---0---3p0-------3p0-------|

Love is all my crippled sould will ever need
Time will take a bigger part, a part of me
But your love, Your love is all I need
Your love, yeah your love is all I need 

C           F#m                G#m
Sun goes up and sun goes down

C           F#m                G#m
I dig love  and just having you around

E |-2-2--2h3-2---0-0--0---0-----------------------|
B |-3-3--3---3---1-1--1---1---3-------3-3-----3---|
G |-2-2--2---2---0-0--0---0---0-----0---0-------0-| (xA Lot)
D |-0-0--0---0---2-2--2h3-2---0h2-2-----0h2-2-----|
A |--------------3-3--3---3---2h3-------2h3-------|
E |--------------0-0--0---0---3p0-------3p0-------|

Then wail "Love is all" lots and merge with cool noises and you have yourself a very beautiful song.
            
Tabs too difficult? Try these video lessons and learn fast.


comments powered by Disqus
↑ Back to top | Tablatures and chords are parodies/interpretations of the original songs. You may use it for private study, scholarship, research or language learning purposes only