» » »

Infatuation Bass tabs (ver.1)

Artists:  A B C D E F G H I J K L M N O P Q R S T U V W X Y Z # 

Infatuation Bass tabs (ver.1)

The Rapture
Rating:
3/5 (2 votes)

Tabs too difficult? Try these video lessons and learn fast.
                Bassist: Matt Safer


Intro/Verse:

g ------------------------------------------------------------:|
d --------1/3-1----------1/3-1--------1/3-1---------1/3-1-----:|
a -1~---4-------4--0~--4-------4----4-------4--0~-4-------4---:|
E -------------------------------4~---------------------------:|

There's a small variation like this:

g ---------------------------------|
d ---------------------------------|
a -1~-/8-8-8-8-8--1~-/8-8-8-8-8----|x1
E ---------------------------------|


g ---------------------------------|
d ---------------------------------|x1
a ----/6-6-6-6-6----/6-6-6-6-6-----|
E -4~-------------4~---------------|

thats pretty much it for the whole song, after the variation i usually change to the 
notes but played like this:


g -------------------------------------------------------------|
d -------------------------------------------------------------|
a -------6/8-6----------6/8-6----------6/8-6----------6/8-6----|
E -6~--9-------9--5~--9-------9--4~--9-------9--5~--9-------9--|

it adds a bit of string sound variation, more jazzy id say...


great song! simple is better...
            
Tabs too difficult? Try these video lessons and learn fast.




comments powered by Disqus
↑ Back to top | Tablatures and chords are parodies/interpretations of the original songs. You may use it for private study, scholarship, research or language learning purposes only