» » »

Alabama Sunshine Bass tabs (ver.1)

Artists:  A B C D E F G H I J K L M N O P Q R S T U V W X Y Z # 

Alabama Sunshine Bass tabs (ver.1)

The Rapture
Rating:
0/5 (0 votes)

Hard to play? Try these video lessons and learn fast.
                0:00 -> 0:30
G|----------------------------------------------|
D|----7-5~-------7-5-------7-5~------7-5~-------|
A|----------------------------------------------|
E|-5~-------1/5~------1/5~-------1/5------------| x1

0:30 -> 0:46
G|----------------------------------------------|
D|---------5-7~---------------------------------|
A|-----5-7--------------------------------------|
E|-1/5----------5/3~----------------------------| x2

0:46 -> 1:02
G|-------15--15--15--15--15----...--------------| (16 of each)
D|-///-----15--15--15--15--15--...-------///----| (fat slide down)
A|-(fat slide)-------------------(on and on)----|
E|----------------------------------------------| x1

1:02 -> 1:18
G|----------------------------------------------|
D|---------5-7~---------------------------------|
A|-----5-7--------------------------------------|
E|-1/5----------5/3~----------------------------| x2

1:18 -> 1:34  (pretty fast)
G|----------------------------------------------|
D|-7---7---6---6---5---5---4---4----------------|
A|---7---7---6---6---5---5---4---4--------------|
E|----------------------------------------------| x4

rest until 1:41 then back to 

1:41 -> 1:57
G|----------------------------------------------|
D|---------5-7~---------------------------------|
A|-----5-7--------------------------------------|
E|-1/5----------5/3~----------------------------| x2

1:57 -> 2:28
G|------------15--15--15--15--15----...---------| (16 of each)
D|----///-------15--15--15--15--15--...----///--| (and fat slide down)
A|-(fat slide)-------------------(on and on)----|
E|----------------------------------------------| x1

2:28 to end
G|----------------------------------------------|
D|-7---7---6---6---5---5---4---4----------------|
A|---7---7---6---6---5---5---4---4/-------------|
E|-------------------------(slide down to end)--| 

 
            
Hard to play? Try these video lessons and learn fast. | Correct




comments powered by Disqus
↑ Back to top | Tablatures and chords are parodies/interpretations of the original songs. You may use it for private study, scholarship, research or language learning purposes only