» » »

Lost & Found Tabs (ver.4)

Artists:  A B C D E F G H I J K L M N O P Q R S T U V W X Y Z # 

Lost & Found Tabs (ver.4)

Randy Rogers Band
Rating:
0/5 (0 votes)

Hard to play? Try these video lessons and learn fast.
                Lost and Found (live version)
Randy Rogers

These are just the main riffs to get you started.

riff #1
----------------------------------------------------------------------------------
--10--10h12---12s14p12---10--10--7----10h12---12s14p12---10---12s15--15-15s17--17-
----------------------------------------------------------------------------------
----------------------------------------------------------------------------------
----------------------------------------------------------------------------------
----------------------------------------------------------------------------------

----------------------------------------------------------------------------------
---17p15---14s15s14---------------------------------------------------------------
----------------------------------------------------------------------------------
----------------------------------------------------------------------------------
----------------------------------------------------------------------------------
----------------------------------------------------------------------------------

riff #2
----------------------------------------------------------------------------------
----------------------------------------------------------------------------------
----------------------------------------------------------------------------------
--7--7h9----9s11p9-----7---7---4------7h9------9s11p9-----7----9s12----12s14---14-
----------------------------------------------------------------------------------
----------------------------------------------------------------------------------


----------------------------------------------------------------------------------
----------------------------------------------------------------------------------
----------------------------------------------------------------------------------
---14p12----11s12p11--------------------------------------------------------------
----------------------------------------------------------------------------------
----------------------------------------------------------------------------------
            
Hard to play? Try these video lessons and learn fast. | Correct




comments powered by Disqus
↑ Back to top | Tablatures and chords are parodies/interpretations of the original songs. You may use it for private study, scholarship, research or language learning purposes only