>
 >
Scales Used

Scales Used Guitar Tabs

Randy Rhoads - Scales Used chords, tabs, tablatures, lyrics

Guitar lessons | Add/correct | Request | Top 50 tabs Artists:  A B C D E F G H I J K L M N O P Q R S T U V W X Y Z 0-9

Scales Used Guitar Tabs – Randy Rhoads

CD, Sheet music, Poster

Do you like Scales Used? Share with your friends now
Tabs
E |-----------------------------2-3-------------------------------3--|
  B |-------------------------3-5-----------------------------3-5-6----|
  G |-------------------2-3-5-----------------------------3-5----------|
  D |-------------2-3-5-----------------------------3-5-7--------------|
  A |-------1-3-5-----------------------------3-5-7--------------------|
  E |-1-3-5-----------------------------3-5-6--------------------------|
  
  E |-----------------------------5-----------------------------------6|
  B |-----------------------5-6-8--------------------------------8-10--|
  G |-------------------5-7-------------------------------7-9-10-------|
  D |-------------5-7-8----------------------------7-8-10--------------|
  A |-------5-7-8---------------------------7-8-10---------------------|
  E |-5-6-8--------------------------6-8-10----------------------------|

 E|--------------------------------------8-------------------------------------
 B|------------------------------8-10-12---------------------------------------
 G|-------------------------9-10---------------------------------------10-12-14
 D|-----------------8-10-12-----------------------------------10-12-14---------
 A|---------8-10-12----------------------------------10-12-13------------------
 E|-8-10-12---------------------------------10-12-13---------------------------

  E|-------10--------------------------------------------12------|
  B|-11-13-----------------------------------------13-15---------|
  G|--------------------------------------12-14-15---------------|
  D|-----------------------------12-14-15------------------------|
  A|--------------------12-13-15---------------------------------|
  E|-----------12-13-15------------------------------------------|





Comments


Popular Randy Rhoads tabs & chords
Afterglow Of Your Love Tabs
Crazy Train Tabs
Dee Tabs
Dee 2 Tabs
Dee 3 Tabs
Diary Of A Madman Tabs
Good Bye To Romance (Solo) Tabs
Killer Girls Tabs
Laughing Gas Tabs
Picking Up The Pieces Tabs


Song lyrics



↑ Back to top | Tablatures and chords are parodies/interpretations of the original songs. You may use it for private study, scholarship, research or language learning purposes only
© 2014 AZChords.com Contact us | Privacy policy | DMCA | Add/correct tabs | Request tabs | Top 50 tabs