>
 >
Crazy Train 1

Crazy Train 1 Guitar Tabs

Randy Rhoads - Crazy Train 1 chords, tabs, tablatures, lyrics

Guitar lessons | Add/correct | Request | Top 50 tabs Artists:  A B C D E F G H I J K L M N O P Q R S T U V W X Y Z 0-9

Crazy Train 1 Guitar Tabs – Randy Rhoads

CD, Sheet music, Poster

Do you like Crazy Train 1? Share with your friends now
TabsTabs v2
Intro:
E-------------------------------------x---0-----------------------|
B-------------------------------------3---0-----------------------|
G--11/----2-2------------------11/----2---x-----------------------|
D--11/----2-2------2-2---------11/--------2------(X2)-------------|
A--9/-----0-0------2-2---------9/---------------------------------|
E-------------4p2--0-0--4p0---------------------------------------|

Intro Solo:
E-----------------------------------------------------------------|
B---------17--(17)----10*b-10*b-10*b-10*b-10*b--10b12-------------|
G--16b17------(17)------------------------------------------------|
D-----------------------------------------------------------------|
A-----------------------------------------------------------------|
E-----------------------------------------------------------------|

Next:
E-----------------------------------------------------------------|
B-----------------------------------------------------------------|
G---4b5--5-5-5-5-5-5-5-5-5-5-5-5---4*PHb5-------------------------|
D-----------------------------------------------------------------|
A------------------------------------------0/---------------------|
E---------------------------------------------(pena loitering)----|

Intro:
E-----------------------------------------------------------x--0--|
B-----------------------------------------------------------3--0--|
G-----------------------------------------------------------2--x--|
D--------------------------------------------------------------2--|
A------4---5---4----2-------2--------(X3)------4---5---4----------|
E--2-2---2---2---2----5-4-5---5-4-0--------2-2---2---2---2--------|

Riff Start:
E-----------------------------------------------------------------|
B----------5-----------5---------3--------------------------------|
G----------6-----------4---------2----------2---------------------|
D----------7-----------6---------4----------2---------------------|
A--0--0-0-----0-0-0-0-----0--0-0---0-0-0-0--0-------0-------------|
E-----------------------------------------------0h2---------------|
   *  * *     * * * *     *  * *   * * * *
E-----------------------------------------------------------------|
B----------5-----------5---------3--------------------------------|
G----------6-----------4---------2----------2---4-2---------------|
D----------7-----------6---------4----------2-------4-2-----------|
A--0--0-0-----0-0-0-0-----0--0-0---0-0-0-0--0-----------4-2-------|
E-----------------------------------------------------------------|
   *  * *     * * * *     *  * *   * * * *
E-----------------------------------------------------------------|
B----------5-----------5---------3--------------------------------|
G----------6-----------4---------2----------2---------------------|
D----------7-----------6---------4----------2---------------------|
A--0--0-0-----0-0-0-0-----0--0-0---0-0-0-0--0-------0-------------|
E-----------------------------------------------0h2---------------|
   *  * *     * * * *     *  * *   * * * *
E-----------------------------------------------------------------|
B----------5-----------5---------3--------------------------------|
G----------6-----------4---------2----------2--2-2----------------|
D----------7-----------6---------4----------2--2-2----------------|
A--0--0-0-----0-0-0-0-----0--0-0---0-0-0-0--0--0-0----------------|
E-----------------------------------------------------------------|
   *  * *     * * * *     *  * *   * * * *
E-----------------------------------------------------------------|
B----------5-----------5---------3--------------------------------|
G----------6-----------4---------2----------2---------------------|
D----------7-----------6---------4----------2---------------------|
A--0--0-0-----0-0-0-0-----0--0-0---0-0-0-0--0-------0-------------|
E-----------------------------------------------0h2---------------|
   *  * *     * * * *     *  * *   * * * *
E-----------------------------------------------------------------|
B----------5-----------5---------3--------------------------------|
G----------6-----------4---------2--------------------------------|
D----------7-----------6---------4--------------------------------|
A--0--0-0-----0-0-0-0-----0--0-0---0----5*-4*-----------4*--------|
E----------------------------------------------3*-3*(near2)-3*----|
   *  * *     * * * *     *  * *   *
E-----------------------------------------------------------------|
B----------5-----------5---------3--------------------------------|
G----------6-----------4---------2----------2---------------------|
D----------7-----------6---------4----------2---------------------|
A--0--0-0-----0-0-0-0-----0--0-0---0-0-0-0--0-------0-------------|
E-----------------------------------------------0h2---------------|
   *  * *     * * * *     *  * *   * * * *
E-----------------------------------------------------------------|
B----------5-----------5---------3--------------------------------|
G----------6-----------4---------2----------2---------------------|
D----------7-----------6---------4----------2---3*b---------------|
A--0--0-0-----0-0-0-0-----0--0-0---0-0-0-0--0---------------------|
E-----------------------------------------------------------------|
   *  * *     * * * *     *  * *   * * * *
E-----------------------------------------------------------------|
B----------5-----------5---------3--------------------------------|
G----------6-----------4---------2----------2---------------------|
D----------7-----------6---------4----------2---------------------|
A--0--0-0-----0-0-0-0-----0--0-0---0-0-0-0--0-------0-------------|
E-----------------------------------------------0h2---------------|
   *  * *     * * * *     *  * *   * * * *
E-----------------------------------------------------------------|
B----------5/--------5/---------3---------------------------------|
G----------6/--------4/---------2--------2--2---------------------|
D----------7/--------6/---------4--------2--2---------------------|
A----0--0------0--0-----0--0-------------0--0---------------------|
E----------------------------------2-4----------------------------|
     *  *      *  *     *  *       * *
Bridge:
E-----------------------------------------------------------------|
B-----------------------------------------------------------------|
G--------------------7---5*----------------------7----------------|
D--------------------7------4*-------------------7----------------|
A--4-----4----4------5-----------4-----4---4-----5----------------|
E--2--0--2----2--0---------------2--0--2---2--0--------21/0-------|
              *  *                         *  *

E-----------------------------------------------------------------|
B-----------------------------------------------------------------|
G--2--2---------------(There is improvisation, i cant write this)-|
D--2--2-----2-----------------------------------------------------|
A--0--0-----2-----------------------------------------------------|
E-------4p2-0---0-4(4)--------------------------------------------|


E--------------------------------------------------------------------------|
B--------------------------------------------------------------------------|
G--2--2------4---------------x-x(4)------2---------------------x-x-----7-9-|
D--2--2------2---------------x-x(3)------2-----2---------------x-x-----7-9-|
A--0--0----------------4---4-x-x(3)------0-----2--------4---4--x-x-----5-7-|
E--------4-2----4-4b5--2-0-2-x-x(3)--2-4---4-2-0-4-4b5--2-0-2--x-x-0-2-----|
Riff:
E-----------------------------------------------------------------|
B----------5-----------5---------3--------------------------------|
G----------6-----------4---------2----------2---------------------|
D----------7-----------6---------4----------2---------------------|
A--0--0-0-----0-0-0-0-----0--0-0---0-0-0-0--0-------0-------------|
E-----------------------------------------------0h2---------------|
   *  * *     * * * *     *  * *   * * * *
E-----------------------------------------------------------------|
B----------5-----------5---------3--------------------------------|
G----------6-----------4---------2----------2---4-2---------------|
D----------7-----------6---------4----------2-------4-2-----------|
A--0--0-0-----0-0-0-0-----0--0-0---0-0-0-0--0-----------4-2-------|
E-----------------------------------------------------------------|
   *  * *     * * * *     *  * *   * * * *
E-----------------------------------------------------------------|
B----------5-----------5---------3--------------------------------|
G----------6-----------4---------2----------2---------------------|
D----------7-----------6---------4----------2---------------------|
A--0--0-0-----0-0-0-0-----0--0-0---0-0-0-0--0-------0-------------|
E-----------------------------------------------0h2---------------|
   *  * *     * * * *     *  * *   * * * *
E---------------------------------------19b20-17h1pb17------------|
B----------5-----------5---------3--------------------19p17-------|
G----------6-----------4---------2-------------------------19p17--|
D----------7-----------6---------4--------------------------------|
A--0--0-0-----0-0-0-0-----0--0-0---0-0----------------------------|
E-----------------------------------------------------------------|
   *  * *     * * * *     *  * *   * *
E-----------------------------------------------------------------|
B----------5-----------5---------3--------------------------------|
G----------6-----------4---------2----------2---------------------|
D----------7-----------6---------4----------2---------------------|
A--0--0-0-----0-0-0-0-----0--0-0---0-0-0-0--0-------0-------------|
E-----------------------------------------------0h2---------------|
   *  * *     * * * *     *  * *   * * * *
E-----------------------------------------------------------------|
B----------5-----------5---------3-2-4---5--5-5-------------------|
G----------6-----------4---------2-2-2---6--6-6-------------------|
D----------7-----------6---------4-2-4---7--7-7-------------------|
A--0--0-0-----0-0-0-0----0--0-0-----------------------------------|
E-----------------------------------------------------------------|
   *  * *     * * * *    *  * *
E-----------------------------------------------------------------|
B----------5-----------5---------3--------------------------------|
G----------6-----------4---------2----------2---------------------|
D----------7-----------6---------4----------2---------------------|
A--0--0-0-----0-0-0-0-----0--0-0---0-0-0-0--0-------0-------------|
E-----------------------------------------------0h2---------------|
   *  * *     * * * *     *  * *   * * * *
E-----------------------------------------------------------------|
B----------5-----------5---------3--------------------------------|
G----------6-----------4---------2---x--2-------------------------|
D----------7-----------6---------4---x--2-------------------------|
A--0--0-0-----0-0-0-0-----0--0-0-----x--0-------------------------|
E-----------------------------------------------------------------|
   *  * *     * * * *     *  * *

E-----------------------------------------------------------------|
B----------5-----------5---------3--------------------------------|
G----------6-----------4---------2----------2---------------------|
D----------7-----------6---------4----------2---------------------|
A--0--0-0-----0-0-0-0-----0--0-0---0-0-0-0--0-------0-------------|
E-----------------------------------------------0h2---------------|
   *  * *     * * * *     *  * *   * * * *
E-----------------------------------------------------------------|
B----------5-----------5---------3--------------------------------|
G----------6-----------4---------2----------2--2------------------|
D----------7-----------6---------4----------2--2------------------|
A--0--0-0-----0-0-0-0-----0--0-0---0-0-0-0--0--0------------------|
E-----------------------------------------------------------------|
   *  * *     * * * *     *  * *   * * * *
Next Bridge:
E-----------------------------------------------------------------|
B-----------------------------------------------------------------|
G--------------------7-------5*---------------------7-------------|
D--------------------7-----5*--4*-------------------7-------------|
A--4-----4----4------5---5*--------4-----4---4------5-------------|
E--2--0--2----2--0-----------------2--0--2---2--0--------21/0-----|

E-----------------------------------------------------------------------------|
B-------------------13p11-14p12-15p13-16p14-17p15-18p16-19p17-20p18-21p19-22--|
G--2--2-----------------12----13----14----15----16----17----18----19----20----|
D--2--2-----2-----------------------------------------------------------------|
A--0--0-----2-----------------------------------------------------------------|
E------4p2--0--0-4(4)---------------------------------------------------------|

E--------------------------------------------------------------------------|
B--------------------------------------------------------------------------|
G--2--2------4---------------x-x(4)------2---------------------x-x-----7-9-|
D--2--2------2---------------x-x(3)------2-----2---------------x-x-----7-9-|
A--0--0----------------4---4-x-x(3)------0-----2--------4---4--x-x-----5-7-|
E--------4-2----4-4b5--2-0-2-x-x(3)--2-4---4-2-0-4-4b5--2-0-2--x-x-0-2-----|

Bridge:
E-------------------------------------x---0-----------------------|
B-------------------------------------3---0-----------------------|
G--11/----2-2------------------11/----2---x-----------------------|
D--11/----2-2------2-2---------11/--------2------(X2)-------------|
A--9/-----0-0------2-2---------9/---------------------------------|
E-------------4p2--0-0--4p0---------------------------------------|

Solo:
E---------------------------------------------------------------|
B-t14p7-h10p7-h10p7-h10p7--(x4)--t15p7-h10p7-h10p7-h10p7--(X4)--|
G---------------------------------------------------------------|
D---------------------------------------------------------------|
A---------------------------------------------------------------|
E---------------------------------------------------------------|

E-------------------------------------------------------------|
B--h12p9-(X6)-h10p7-h10p7-------10----------------------------|
G--------------------------9b10----9v-------------------------|
D-------------------------------------------------------------|
A-------------------------------------------------------------|
E-------------------------------------------------------------|

E---17-16-14-----------------------------14-16-17-17~19~17~19~17~19~17~19~17--|
B------------17~19~17~19~17~19~17~19~17---------------------------------------|
G-----------------------------------------------------------------------------|
D-----------------------------------------------------------------------------|
A-----------------------------------------------------------------------------|
E-----------------------------------------------------------------------------|

E---14h17p14-----14----------------------------------------------------------|
B------------h17----h17p15p14-h15p14-h15h17p15p14---------------17-----------|
G-------------------------------------------------h16p14--16b18----18b16-14--|
D----------------------------------------------------------------------------|
A----------------------------------------------------------------------------|
E----------------------------------------------------------------------------|

E-h17p14--(X12)--h21p17--(X8)--h19p16h17p16h19p16h17p16h19p16h17p16-h16p14h17p14--------17---------|
B---------------------------------------------------------------------------------17b18----17b18v--|
G--------------------------------------------------------------------------------------------------|
D--------------------------------------------------------------------------------------------------|
A--------------------------------------------------------------------------------------------------|
E--------------------------------------------------------------------------------------------------|

E------------------------------------------------------------|
B---17--17p15-14---------------------------------------------|
G----------------16--14-------14-------14-------14-----------|
D----------------------16-14----16-14----16-14----16-14------|
A---------------------------16-------16-------16-------16----|
E------------------------------------------------------------|

E---------------------------------------------------14h17p16p14-------19-16-20b21--20b21-20b21-----|
B---------------------------------------------14h17------------h17p14------------------------------|
G---------14h16h17p16p14-16v-------------14h16-----------------------------------------------------|
D-14h16h18--------------------------14h16----------------------------------------------------------|
A------------------------------14h16---------------------------------------------------------------|
E----------------------------------------------------------------------------------------------21\-|

After Solo:
E-----------------------------------------------------------x--0--|
B-----------------------------------------------------------3--0--|
G-----------------------------------------------------------2--x--|
D--------------------------------------------------------------2--|
A------4---5---4----2-------2--------(X3)------4---5---4----------|
E--2-2---2---2---2----5-4-5---5-4-0--------2-2---2---2---2--------|

Riff Start:
E-----------------------------------------------------------------|
B----------5-----------5---------3--------------------------------|
G----------6-----------4---------2----------2---------------------|
D----------7-----------6---------4----------2---------------------|
A--0--0-0-----0-0-0-0-----0--0-0---0-0-0-0--0-------0-------------|
E-----------------------------------------------0h2---------------|
   *  * *     * * * *     *  * *   * * * *
E-----------------------------------------------------------------|
B----------5-----------5---------3--------------------------------|
G----------6-----------4---------2----------2---4-2---------------|
D----------7-----------6---------4----------2-------4-2-----------|
A--0--0-0-----0-0-0-0-----0--0-0---0-0-0-0--0-----------4-2-------|
E-----------------------------------------------------------------|
   *  * *     * * * *     *  * *   * * * *
E-----------------------------------------------------------------|
B----------5-----------5---------3--------------------------------|
G----------6-----------4---------2----------2---------------------|
D----------7-----------6---------4----------2---------------------|
A--0--0-0-----0-0-0-0-----0--0-0---0-0-0-0--0-------0-------------|
E-----------------------------------------------0h2---------------|
   *  * *     * * * *     *  * *   * * * *
E-----------------------------------------------------------------|
B----------5-----------5---------3--------------------------------|
G----------6-----------4---------2----------2--2-2----------------|
D----------7-----------6---------4----------2--2-2----------------|
A--0--0-0-----0-0-0-0-----0--0-0---0-0-0-0--0--0-0----------------|
E-----------------------------------------------------------------|
   *  * *     * * * *     *  * *   * * * *
E-----------------------------------------------------------------|
B----------5-----------5---------3--------------------------------|
G----------6-----------4---------2----------2---------------------|
D----------7-----------6---------4----------2---------------------|
A--0--0-0-----0-0-0-0-----0--0-0---0-0-0-0--0-------0-------------|
E-----------------------------------------------0h2---------------|
   *  * *     * * * *     *  * *   * * * *
E-----------------------------------------------------------------|
B----------5-----------5---------3--------------------------------|
G----------6-----------4---------2--------------------------------|
D----------7-----------6---------4--------------------------------|
A--0--0-0-----0-0-0-0-----0--0-0---0-------4*-----------4*--------|
E---------------------------------------3*-----3*-3*(near2)-3*----|
   *  * *     * * * *     *  * *   *
E-----------------------------------------------------------------|
B----------5-----------5---------3--------------------------------|
G----------6-----------4---------2----------2---------------------|
D----------7-----------6---------4----------2---------------------|
A--0--0-0-----0-0-0-0-----0--0-0---0-0-0-0--0-------0-------------|
E-----------------------------------------------0h2---------------|
   *  * *     * * * *     *  * *   * * * *
E-----------------------------------------------------------------|
B----------5-----------5---------3--------------------------------|
G----------6-----------4---------2----------2---------------------|
D----------7-----------6---------4----------2---3v----------------|
A--0--0-0-----0-0-0-0-----0--0-0---0-0-0-0--0---------------------|
E-----------------------------------------------------------------|
   *  * *     * * * *     *  * *   * * * *
E-----------------------------------------------------------------|
B----------5-----------5---------3--------------------------------|
G----------6-----------4---------2----------2---------------------|
D----------7-----------6---------4----------2---------------------|
A--0--0-0-----0-0-0-0-----0--0-0---0-0-0-0--0-------0-------------|
E-----------------------------------------------0h2---------------|
   *  * *     * * * *     *  * *   * * * *
E-----------------------------------------------------------------|
B----------5/--------5/---------3---------------------------------|
G----------6/--------4/---------2--------2--2---------------------|
D----------7/--------6/---------4--------2--2---------------------|
A----0--0------0--0-----0--0-------------0--0---------------------|
E----------------------------------2-4----------------------------|
     *  *      *  *     *  *       * *
Bridge:
E----------------------------------------------------3/----|
B----------------------------------------------------3/----|
G--------------------7---5*----------------------7---2/----|
D--------------------7------4*-------------------7---2/----|
A--4-----4----4------5-----------4-----4---4-----5---------|
E--2--0--2----2--0---------------2--0--2---2--0------------|

Will be continued tomorrow...





Comments


Popular Randy Rhoads tabs & chords
Band Jamm Tabs
Dee Tabs
Dee 1 Tabs
Dee 3 Tabs
Diary Of A Madman Tabs
Good Bye To Romance (Solo) Tabs
Its Not So Funny Intro Tabs
Killer Girls Tabs
Picking Up The Pieces Tabs
Scales Used Tabs


Song lyrics



↑ Back to top | Tablatures and chords are parodies/interpretations of the original songs. You may use it for private study, scholarship, research or language learning purposes only
© 2014 AZChords.com Contact us | Privacy policy | DMCA | Add/correct tabs | Request tabs | Top 50 tabs