>
 >
Band Jamm

Band Jamm Guitar Tabs

Randy Rhoads - Band Jamm chords, tabs, tablatures, lyrics

Guitar lessons | Add/correct | Request | Top 50 tabs Artists:  A B C D E F G H I J K L M N O P Q R S T U V W X Y Z 0-9

Band Jamm Guitar Tabs – Randy Rhoads

CD, Sheet music, Poster

Do you like Band Jamm? Share with your friends now
Tabs
with all searching ive never found the band jam to be tabbed out anywhere so this 
is the first let me know what you think...

the solo is different because of the band jam

Legend:
h: hammer-on
p: pull off
w: whammy down and up
\: slide down
tr: trill
*: harp harmonic

|-------------------------------------------------|
|-------------------------------------------------|
|-------------------------------------------------|
|-------------------------------------------------|
|-------3-----------3-----------3-----------3-----|
|-5p3h5---5p3-5p3h5---5p3-5p3h5---5p3-5p3h5---5p3-|

|--------------------------------------------------|
|--------------------------------------------------|
|--------------------------------------------------|
|--------------------------------------------------|
|-------3-----------3-----------3-----------3------|
|-5p3h5---5p3-5p3h5---5p3-5p3h5---5p3-5p3h5---5p3--|

|-------------------------------------------------|
|-------------------------------------------------|
|-------------------------------------------------|
|-------------------------------2-----------2-----|
|-------3-----------3-3-2-4p2h4---4p2-4p2h4---4h5-|
|-5p3h5---5p3-5p3h5-------------------------------|

|-----------------------------------------5------|
|-------------------------------5-5-8p5-----8p5--|
|-------------------5-5-5-7-5h7---------8--------|
|-------5-5-5-7p5h7------------------------------|
|-7p5h7------------------------------------------|
|------------------------------------------------|

|-8-5-7-5-----8-5-7-5-------------------------------|
|---------8p5---------8p5-6p5---5-------------------|
|-----------------------------8---8p5s4h5p4---4-----|
|-------------------------------------------7---7p4-|
|---------------------------------------------------|
|---------------------------------------------------|

|-----------------------------------------------|
|-----------------------------------------------|
|-----------------------------------------------|
|-2h3p2-0h2p0-----2-2h3p2-0h2p0-----------------|
|-------------2h3---------------3p2h3-0h2-------|
|-----------------------------------------2-----|

|---------------------------------------------|
|-------------------------------------------5-|
|---------------------------------------5-7---|
|-------5---------5---------5---5-7p5h7-------|
|-5h6h7---7-5h6h7---7-5h6h7---7---------------|
|---------------------------------------------|

|-5------8-11-10-8----8----------------------------------------17---------|
|---7s10-----------11---10-8-------10-12-10-----------------17----20-17---|
|----------------------------10s11--------------17-19-17------------------|
|-------------------------------------------/19----------19---------------|
|-------------------------------------------------------------------------|
|-------------------------------------------------------------------------|

|------17---------17-----------17-----------17---|
|-20b20------20-17--20----20-17--20----20-17--20-|
|------------------------------------------------|
|------------------------------------------------|
|------------------------------------------------|
|------------------------------------------------|

|-17h20p17----17h20p17----17--------------------------|
|----------20----------20----20p19p17----17-----------|
|-------------------------------------20----20-19p17--|
|-----------------------------------------------------|
|-----------------------------------------------------|
|-----------------------------------------------------|

|--------------------------------------------|
|--------------------------------------------|
|-19-17----17--------------------------------|
|-------19----19p17-------------19------19\--|
|-------------------19-18-17s16-16------16\--|
|--------------------------------------------|


|----------------------------------------------------------------7-|
|---------------------------------------------------------9-7-10---|
|-----------------------------------4-5-7-6-7-9-----7-6-9----------|
|-------------3-5-4-5-7-------4-5-7-------------6-7----------------|
|-------3-5-7-----------4-5-7--------------------------------------|
|-3-5-7------------------------------------------------------------|

|-10p7h8p7----7------------------------------------|
|----------10---10p7-8p7---------------------------|
|------------------------9-7-5-4-5-4---4-2---------|
|------------------------------------7-----4-2h3p2-|
|--------------------------------------------------|
|--------------------------------------------------|

|-------------------------------------|
|--------------------------------7----|
|---------------------------5---------|
|-0-2-0---------------4--0------------|
|-------2h3p2-0-2-3-0-----------------|
|-------------------------------------|

|----17^-15p12h15p12h15p12h15p12------------------------------------------|
|-------------------------------------------------------------------------|
|-5*w----------------------------5--5*whammy bar down --------------------|
|--------------------------------5----------------------------------------|
|-------------------------------------------------------------------------|
|----------------------------------------------------0 whammy bar up slowely

|-5-----------------------------------------------------|
|---7---7-----------------------------------------------|
|-----8---8-5-8-5---5-----------------------------------|
|-----------------7---7-4-7-4---3-----------------------|
|-----------------------------5---6-3-6-3---3-----------|
|-----------------------------------------5---5-3--2----|

|-----------------------------|
|-------------------10h13----|
|--------------8h11-----------|
|---------7h10----------------|
|-----6h9---------------------|
|-5h8-------------------------|

|-11h14-----14h17---17h20---------21-------------|
|--------------------------17s20-----------------|
|------------------------------------------------|
|------------------------------------------------|
|------------------------------------------------|
|------------------------------------------17\---|

|------------------------------------------|
|------------------------------------------|
|-2--0--2-------------------------------4--|
|-2--0--0--------------------------/6-7----|
|-0-----0----------------------------------|
|----3-------------------------------------|

|-----------------------------------------------|
|-----------------------------------------------|
|-6----(6)-4------------------------------------|
|------------7-6h7p6-4-----------3-6-6s7-6-4----|
|-----------------------2s4---------------------|
|--------------------------------------------2--|
                  
|-------------------------7------------------------|
|---------------------7s8---10---------------------|
|-----------------2-7----------9----------9------9-|
|---------4-----4----------------11----11------9---|
|---2-3-4---4s5---------------------12------11-----|
|-5------------------------------------------------|
           
|-12-10-9-----------------------------------|
|---------10--------------------0-----------|
|------------9----------9s8tr9--0-----------|
|--------------11----11---------------------|
|-----------------12------------------------|
|-------------------------------------------|

|------------------------------------------------------------------|
|------------------------------------------------------------------|
|-7-5-----8-5-----7-5-----8-5------8-5-7-5-----7-5-----8-5-7-5-----|
|-----7-5-----7-5-----7-5-----7-5----------7-5-----7-5---------7-7-|
|------------------------------------------------------------------|
|------------------------------------------------------------------|

|-----------------------------------------|
|-----------------------------------------|
|-10-8------11-8------10-8------11-8------|
|------10-8------10-8------10-8------10-8-|
|-----------------------------------------|
|-----------------------------------------|

|-------------------------------------------|
|-------------------------------------------|
|-11-8-10-8------10-8------11-8-------------|
|-----------10-8------10-8------10-10-12-12-|
|-------------------------------------------|
|-------------------------------------------|

|-------------------------------------------------|
|-------------------------------------------------|
|-14-12-------15-12-------15-13-------16-13-------|
|-------14-12-------14-12-------15-13-------15-14-|
|-------------------------------------------------|
|-------------------------------------------------|

|-------------------------------------------------|
|-------------------------------------------------|
|-16-14-------17-14-------17-15-------18-15-------|
|-------16-14-------16-14-------17-15-------17-17-|
|-------------------------------------------------|
|-------------------------------------------------|

|-------------------------------------------------------------|
|----------------------------20b22==(20)-(20)-----------------|
|-18-16-------19-16-------19-------------------pickslide^^^---|
|-------19-17-------17-17----------------------pickslide^^^---|
|-------------------------------------------------------------|
|-------------------------------------------------------------|

the BAND JAMM!!
|-------------------------------------------------------------------|
|-5--3--5-------3--5--3--5----------8--7-8-10-7---12--13-12-11--7---|
|-4--2--4-------2--4--2--4-5*--4*w--7--7-7-9--7-7-12--12-12-10--7-7-|
|-2--0--2-5p4p2-0--2--0--2---5*-----------------7-----------------7-|
|-------------------------------------------------------------------|
|-------------------------------------------------------------------|

|---------------------------|
|-8--7-8-10-7---12--10--8-7-|
|-7--7-7-9--7-7-11--9---7-6-|
|-------------7-------------|
|---------------------------|
|---------------------------|

|--------------------------------------------------------------------------|
|--------------------------------------------------------------------------|
|--------------------------------4h5p4-4--------------4h7p5p4h5p4-4--------|
|-------------------------------------7-7p5p4h5p4----------------7-7p5p4-5-|
|------------------------------------------------7p5h7------------------7--|
|-0000-0000-0000-0000-0000-0000--------------------------------------------|

|------------------------------------------------------------|
|-------------------7----------------------------------------|
|-------2h4------4h7--2h3h5p2h3-2----------------------------|
|----2h4------4h7--------------5-3h5p2h3-2-------------4--7--|
|-2h5------4h7--------------------------5-3h5p2h3-2----4--7--|
|------------------------------------------------5-3h5-2--5--|

|----------------------------------------------|
|----------------------------------------------|
|4h5p4-4--------------4h7p5p4h5p4-4------------|
|-----7-7p5p4h5p4----------------7-7p5p4-5-----|
|-----------------------------------------7p5h7|
|----------------------------------------------|

|------------------------------------------------------------|
|-------------------7----------------------------------------|
|-------2h4------4h7--2h3h5p2h3-2----------------------------|
|----2h4------4h7--------------5-3h5p2h3-2-------------4--7--|
|-2h5------4h7--------------------------5-3h5p2h3-2----4--7--|
|------------------------------------------------5-3h5-2--5--|

|-------------------------------------------------------------------------|
|-------------------------------------------------------------------------|
|-------------------------------------------------------------------------|
|-------------------------------------------------------------------------|
|------0h2p0---2p0---3p2p0-------0h2p0---2p0---3p2p0-------0h2p0---2p0----|
|-0h2h3-----3p2---3p2-----3-0h2h3-----3p2---3p2-----3-0h2h3-----3p2---3p2-|

|-------------------------------|
|-------------------------------|
|--------------------------12*w-|
|------------------------7*-----|
|-3p2p0-------------0-----------|
|------3-0h2h3h5p3p2------------|

|-12p8p0-12p8p0-12p8p0-12p8p0-10p7p0-10p7p0-10p7p0-10p7p0-|
|---------------------------------------------------------|
|---------------------------------------------------------|
|---------------------------------------------------------|
|---------------------------------------------------------|
|---------------------------------------------------------|

|-8p5p0-8p5p0-8p5p0-8p5p0-7p4p0-7p4p0-7p4p0-7p4p0--|
|--------------------------------------------------|
|--------------------------------------------------|
|--------------------------------------------------|
|--------------------------------------------------|
|--------------------------------------------------|

|---------------------------------------------------------|
|-12p8p0-12p8p0-12p8p0-12p8p0-10p7p0-10p7p0-10p7p0-10p7p0-|
|---------------------------------------------------------|
|---------------------------------------------------------|
|---------------------------------------------------------|
|---------------------------------------------------------|
          
|---------------------------------------------|
|-8p5p0-8p5p0-8p5p0-8p5s4-12p7p4h7-12p7p4h7---|
|---------------------------------------------|
|---------------------------------------------|
|---------------------------------------------|
|---------------------------------------------|

|---------------------------------------|
|-12p7p4h7-12p4h7p4h5-12p8p5h8-12p8p5h8-|
|---------------------------------------|
|---------------------------------------|
|---------------------------------------|
|---------------------------------------|

|----------------------------------------------|
|-12p8p5h8-12p8p5h7-17p9h12p9h12-17p9h12p9h12--|
|----------------------------------------------|
|----------------------------------------------|
|----------------------------------------------|
|----------------------------------------------|

|------------------------------------------------------|
|-17p9h12p9h12-17p9h12p9-17p10h13p10h13-17p10h13p10h13-|
|------------------------------------------------------|
|------------------------------------------------------|
|------------------------------------------------------|
|------------------------------------------------------|

|--------------------------------------------------------------|
|-17p10h13p10h13-17p10h13p11s12-20p12h15p12h15-20p12h15p12h15--|
|--------------------------------------------------------------|
|--------------------------------------------------------------|
|--------------------------------------------------------------|
|--------------------------------------------------------------|

|-------------------------------------------------------|
|-20p12h15p12h15-20p12h15p12s13-22p17p13h17-22p17p13h17-|
|-------------------------------------------------------|
|-------------------------------------------------------|
|-------------------------------------------------------|
|-------------------------------------------------------|

|-----------------------------------------------------------|
|-22p18p13h18-22p18p14-22p17p14h17-21p17p14-21p17p14h17-21--|
|-----------------------------------------------------------|
|-----------------------------------------------------------|
|-----------------------------------------------------------|
|-----------------------------------------------------------|





Comments


Popular Randy Rhoads tabs & chords
Afterglow Of Your Love Tabs
Crazy Train Tabs
Dee Tabs
Dee 2 Tabs
Its Not So Funny Intro Tabs
Killer Girls Tabs
Laughing Gas Tabs
Mamas Little Angels Intro Tabs
Picking Up The Pieces Tabs
Ravers Tabs


Song lyrics



↑ Back to top | Tablatures and chords are parodies/interpretations of the original songs. You may use it for private study, scholarship, research or language learning purposes only
© 2014 AZChords.com Contact us | Privacy policy | DMCA | Add/correct tabs | Request tabs | Top 50 tabs