» » »

You've Got A Friend In Me Tabs (ver.2)

Artists:  A B C D E F G H I J K L M N O P Q R S T U V W X Y Z # 

You've Got A Friend In Me Tabs (ver.2)

Randy Newman
Rating:
3/5 (1 vote)

Tabs too difficult? Try these video lessons and learn fast.
                (Intro)
-------------------------------------------------------------------------------
                             YOU'VE GOT A FRIEND IN ME - Randy Newman
-------------------------------------------------------------------------------

Tuning: EADGBe

e|---------------------------------------------------------------------------|
B|---------------8------/7---------------------------------------------------|
G|--------7h8h10----8-------10--8--------------------------------------------|
D|------8-------------10----------10--8--------------------------------------|
A|-6--6---------------------------------10--6--------------------------------|
E|---------------------------------------------------------------------------|

| /  slide up
| \  slide down
| h  hammer-on
| p  pull-off
| ~  vibrato
| +  harmonic
| x  Mute note
===============================================================================
            
Tabs too difficult? Try these video lessons and learn fast.


comments powered by Disqus
↑ Back to top | Tablatures and chords are parodies/interpretations of the original songs. You may use it for private study, scholarship, research or language learning purposes only