» » »

My Kind Of Country Tabs (ver.1)

Artists:  A B C D E F G H I J K L M N O P Q R S T U V W X Y Z # 

My Kind Of Country Tabs (ver.1)

Randy Houser
Rating:
0/5 (0 votes)

Hard to play? Try these video lessons and learn fast.
                (Intro)

e|---------------------------------------------------------------------------|
B|---------------------------------------------------------------------------|
G|---------------------------------------------------------------------------|
D|---6^----4--------------------------------4^-----------6^-----4------------|
A|-----------------------4------6----------------6---------------------------|
E|----------------6-------------------6--------------------------------------|

e|----------------------|
B|----------------------|
G|----------------------|
D|---4-----6------2x----|
A|---4-----6------------|
E|---2-----4------------|

i don't mess with the monkey......

e|---------------------------------------------------------------------------|
B|---------------------------------------------------------------------------|
G|---------------------------------------------------------------------------|
D|--1-1-1-1-1-1---4---6------------------------------------------------------|
A|--1-1-1-1-1-1---4---6------------------------------------------------------|
E|----------------2---4------------------------------------------------------|

the rest is just like this
            
Hard to play? Try these video lessons and learn fast. | Correct




comments powered by Disqus
↑ Back to top | Tablatures and chords are parodies/interpretations of the original songs. You may use it for private study, scholarship, research or language learning purposes only