» » »

Randy Houser, My Kind Of Country Tabs (ver.2)

Artists:  A B C D E F G H I J K L M N O P Q R S T U V W X Y Z # 

My Kind Of Country Tabs (ver.2)

Randy Houser Tabs
 Rating:
3.4/5 (5 votes)
My Kind Of Country lessons Tabs too difficult? Try these video lessons and learn fast
                This is my first tab , but I think its right.
I listented to the song and the intro was a little hard to tab the rest of but i tried 
best. the rest of the song is pretty easy.

The chord pattern goes as follows
Verse 1
e----------------------------------------------------------------------|
B----------------------------------------------------------------------|
G-1--1-1-1-1-1---------------------------------------------------------|     3x
D-2--2-2-2-2-2-5-7-----------------------------------------------------|
A-2--2-2-2-2-2-3-5-----------------------------------------------------|
E----------------------------------------------------------------------|

"Dont let this black tie fool ya"....

e-----------------------------------------------------------|
B-----------------------------------------------------------|
G-1-1-1-1---------------------------------------------------|
D-2-2-2-2---------------------------------------------------|
A-2-2-2-2---------------------------------------------------|
E-----------------------------------------------------------|

Chorus
I think there are 2 guitars playing but this is what i could make out.

e----------------------------------------------------------|
B----------------------------------------------------------|
G---------3-3-3-3/--4-4-4-4-4-4-4-4------------------------|     3x
D-3-3-3-3-3-3-3-3/--4-4-4-4-4-4-4-4------------------------|
A-3-3-3-3-1-1-1-1/--2-2-2-2-2-2-2-2------------------------|
E-1-1-1-1--------------------------------------------------|
                                     , after guitar 1 plays this guitar 2 plays
e---------------------------------|
B---------------------------------|
G-5-7-----------------------------|
D-5-7-----------------------------|
A-3-5-----------------------------|
E---------------------------------|

For the next verse just repeat verse 1.
then play the chorus about 3 more times and thats it.
            
Submit corrections

comments powered by Disqus
↑ Back to top | Randy Houser Tabs for My Kind Of Country. Lyrics for acoustic guitar and electric guitar. Tablatures and chords are parodies/interpretations of the original songs. You may use it for private study, scholarship, research or language learning purposes only