>
 >
X-Ray Eyes

X-Ray Eyes Guitar Tabs

Randy - X-Ray Eyes chords, tabs, tablatures, lyrics

Guitar lessons | Add/correct | Request | Top 50 tabs Artists:  A B C D E F G H I J K L M N O P Q R S T U V W X Y Z 0-9

X-Ray Eyes Guitar Tabs – Randy

CD, Sheet music, Poster

Do you like X-Ray Eyes? Share with your friends now
Tabs
INTRO: (pm. except for the cool little scale)

   C5               G5
e|--------------------------------------------|
B|--------------------------------------------|
G|-5-5-5-5-5-5-5-5-----------3-2-0------------|
D|-5-5-5-5-5-5-5-5--5-5-5-5--------3-1-0------|
A|-3-3-3-3-3-3-3-3--5-5-5-5--------------3----|
E|------------------3-3-3-3-------------------|x2


VERSES:

   C5      G5      C5
e|--------------------------------------------|
B|--------------------------------------------|
G|-5-5-5-5---------5-5-5-5---3-2-0------------|
D|-5-5-5-5-5-5-5-5-5-5-5-5---------3-1-0------|
A|-3-3-3-3-5-5-5-5-3-3-3-3---------------3----|
E|---------3-3-3-3----------------------------|x2

   F5       G5       F5       G5       F5       G5       C5  
e|------------------------------------------------------------------------------|
B|------------------------------------------------------------------------------|
G|-------------------------------------------------------5-5-5-5--3-2-0---------|
D|-3-3-3-3--5-5-5-5--3-3-3-3--5-5-5-5--3-3-3-3--5-5-5-5--5-5-5-5--------3-1-0---|
A|-3-3-3-3--5-5-5-5--3-3-3-3--5-5-5-5--3-3-3-3--5-5-5-5--3-3-3-3--------------3-|
E|-1-1-1-1--3-3-3-3--1-1-1-1--3-3-3-3--1-1-1-1--3-3-3-3-------------------------|
Repeat


CHORUS:

   C            G      Dm     G      C      G       
e|-0--0--0------3------1------3------0------3---|
B|-1--1--1------0------3------0------1------0---|
G|-0--0--0------0------2------0------0------0---|
D|-2--2--2------0------0------0------2------0---|
A|-3--3--3------2-------------2------3------2---|
E|--------------3-------------3-------------3---|

Intro x1
Verse x1
Chorus x2

BREAK:

   Fmaj7    C        Am       G 
e|-1-1-1-1--0-0-0-0--0-0-0-0--3-3-3-3---|
B|-1-1-1-1--1-1-1-1--1-1-1-1--0-0-0-0---|
G|-2-2-2-2--0-0-0-0--2-2-2-2--0-0-0-0---|
D|-3-3-3-3--2-2-2-2--2-2-2-2--0-0-0-0---|
A|-3-3-3-3--3-3-3-3--0-0-0-0--2-2-2-2---|
E|-1-1-1-1--------------------3-3-3-3---|x4

When Johanna and Jennie - from Sahara Hotnights!! ;) - start singing, "Oo-oooh! Happy family!" those scales come in again.
e|--------------------------|
B|--------------------------|
G|-3-2-0--------------------|
D|-------3-1-0--------------|
A|-------------3------------|
E|--------------------------|x3


OUTRO:
Chorus x2

End on C
e|-0--0--3-3-3-3-3-0-------------|
B|-1--1--------------3-0---------|
G|-0-----------------------------|
D|-2-----------------------------|
A|-3-----------------------------|
E|-------------------------------|





Comments


Popular Randy tabs & chords
Addicts Of Communication Bass Tabs
Adicts Of Communication Bass Tabs
Holy *** Bass Tabs
Me And The Boys Bass Tabs
They Fear Us 1 Bass Tabs
They Fear Us Perfect Bass Tabs
Queen Ifrica Chords
Little Toulouse Tabs
Me And The Boys Tabs
They Fear Us Tabs


Song lyrics



↑ Back to top | Tablatures and chords are parodies/interpretations of the original songs. You may use it for private study, scholarship, research or language learning purposes only
© 2014 AZChords.com Contact us | Privacy policy | DMCA | Add/correct tabs | Request tabs | Top 50 tabs