>
 >
Working Class Radio

Working Class Radio Guitar Tabs

Randy - Working Class Radio chords, tabs, tablatures, lyrics

Guitar lessons | Add/correct | Request | Top 50 tabs Artists:  A B C D E F G H I J K L M N O P Q R S T U V W X Y Z 0-9

Working Class Radio Guitar Tabs – Randy

CD, Sheet music, Poster

Do you like Working Class Radio? Share with your friends now
Tabs
Randy - Working Class Radio

Instrument: Guitar
Tuning: eBGDAE



Intro
0:10
e||-------------|
B||-------------|
G||-5-6-5-3-----|
D||-5-6-5-3-6-8-|
A||-3-4-3-1-6-8-|
E||---------4-6-|


Verse

e||---------------------------|
B||---------------------------|
G||-----5--5-5-5-----8--8-8-8-|
D||-5---5--5-5-5-6---8--8-8-8-|
A||-5---3--3-3-3-6---6--6-6-6-|
E||-3------------4------------|


Pre-Chorus

e||-----------------------------------------------|-----------------------------------------------|
B||-----------------------------------------------|-----------------------------------------------|
G||------------8--8--8--8--10-10-10-10-8--8--8--8-|-------------8--8--8--8--5--5--5--5--7--7--7--7|
D||8--8--8--8--8--8--8--8--10-10-10-10-8--8--8--8-|-8--8--8--8--8--8--8--8--5--5--5--5--7--7--7--7|
A||8--8--8--8--6--6--6--6--8--8--8--8--6--6--6--6-|-8--8--8--8--6--6--6--6--3--3--3--3--5--5--5--5|
E||6--6--6--6-------------------------------------|-6--6--6--6------------------------------------|


Chorus

e||---------------------------------------------------------------------------------|
B||---------------------------------------------------------------------------------|
G||-----------------------------------------5--5-5--5-5--5-5--5-7--7-7--7-7--7-7--7-|
D||-5--5-5--5-5--5-5--5-8--8-8--8-8--8-8--8-5--5-5--5-5--5-5--5-7--7-7--7-7--7-7--7-|
A||-5--5-5--5-5--5-5--5-8--8-8--8-8--8-8--8-3--3-3--3-3--3-3--3-5--5-5--5-5--5-5--5-|
E||-3--3-3--3-3--3-3--3-6--6-6--6-6--6-6--6-----------------------------------------| x2


1:03
e||-------------|
B||-------------|
G||-5-6-5-3-----|
D||-5-6-5-3-6-8-|
A||-3-4-3-1-6-8-|
E||---------4-6-|


Verse

e||---------------------------|
B||---------------------------|
G||-----5--5-5-5-----8--8-8-8-|
D||-5---5--5-5-5-6---8--8-8-8-|
A||-5---3--3-3-3-6---6--6-6-6-|
E||-3------------4------------| x8


Pre-Chorus

e||-----------------------------------------------|-----------------------------------------------|
B||-----------------------------------------------|-----------------------------------------------|
G||------------8--8--8--8--10-10-10-10-8--8--8--8-|-------------8--8--8--8--5--5--5--5--7--7--7--7|
D||8--8--8--8--8--8--8--8--10-10-10-10-8--8--8--8-|-8--8--8--8--8--8--8--8--5--5--5--5--7--7--7--7|
A||8--8--8--8--6--6--6--6--8--8--8--8--6--6--6--6-|-8--8--8--8--6--6--6--6--3--3--3--3--5--5--5--5|
E||6--6--6--6-------------------------------------|-6--6--6--6------------------------------------|

Chorus

e||-------------------------------------------------------------------------------|
B||-------------------------------------------------------------------------------|
G||----------------------------------------5--5-5--5-5--5-5--5-7--7-7--7-7--7-7--7|
D||5--5-5--5-5--5-5--5-8--8-8--8-8--8-8--8-5--5-5--5-5--5-5--5-7--7-7--7-7--7-7--7|
A||5--5-5--5-5--5-5--5-8--8-8--8-8--8-8--8-3--3-3--3-3--3-3--3-5--5-5--5-5--5-5--5|
E||3--3-3--3-3--3-3--3-6--6-6--6-6--6-6--6----------------------------------------|





Comments


Popular Randy tabs & chords
Addicts Of Communication Bass Tabs
Adicts Of Communication Bass Tabs
The Exorcist Bass Tabs
The Exorcist 1 Bass Tabs
X-ray Eyes Chords
Addicts Of Communication Tabs
Me And The Boys Tabs
Now And Forever Tabs
Out Of Nothing Comes Nothing Tabs
Step Outside Tabs


Song lyrics



↑ Back to top | Tablatures and chords are parodies/interpretations of the original songs. You may use it for private study, scholarship, research or language learning purposes only
© 2014 AZChords.com Contact us | Privacy policy | DMCA | Add/correct tabs | Request tabs | Top 50 tabs