» » »

Randy, Whom To Blame Bass tabs (ver.1)

Artists:  A B C D E F G H I J K L M N O P Q R S T U V W X Y Z # 

Whom To Blame Bass tabs (ver.1)

Randy Tabs
 Rating:
4/5 (4 votes)
Whom To Blame lessons Tabs too difficult? Try these video lessons and learn fast
1
                I tabbed the entire song so just follow each 
line to reach the end. 

=play a couple of time 
/=slide down \=slide up 
ring=let the note sound 
*= a pause 

Intro /Verse 1 
G|(x2)------------|------------------------------------------------------------ 
D|----------------|------------------------------------------------------------ 
A|-4>-2>----------|-4ring------4ring--2ring-----------------------4ring--2ring- 
E|-------5>-2>-4>-|--------------------------5ring--2ring--4ring--------------- 

/Pre-Chorus 
G|------------------|--------------------------|--------------------------| 
D|------------------|--------------------------|--------------------------| 
A|------------------|----2>-4>-7>--------2>----|----2>-4>-7>--------2>-3>-| 
E|-5ring--2ring--4*-|-5>-----------5>-2>----4>-|-5>-----------5>-2>-------| 

Chorus x2 
G|-----------------------------------| 
D|-----------------------------------| 
A|-4>-2>-------2>---0--0--0-2--2--2--| 
E|-------0>-2>-----------------------| 

Pre-Verse 
G|----------------------------------------------------------------| 
D|----------------------------------------------------------------| 
A|-/7>---9>---\4-4-4---------7>---9>---\4-4-4---------------------| 
E|-------------------4-4-5-5------------------4-4-5-5--7-7-7-7-7*-| 

Verse 2 /Pre-Chorus 
G|(x2)------------|--------------------------|--------------------------| 
D|----------------|--------------------------|--------------------------| 
A|-4>-2>----------|----2>-4>-7>--------2>----|----2>-4>-7>--------2>-3>-| 
E|-------5>-2>-4>-|-5>-----------5>-2>----4>-|-5>-----------5>-2>-------| 

Chorus x2 
G|-----------------------------------| 
D|-----------------------------------| 
A|-4>-2>-------2>---0--0--0-2--2--2--| 
E|-------0>-2>-----------------------| 

Outro 
G|----------------------------------------------------------------------------| 
D|----------------------------------------------------------------------------| 
A|------------44---4-22---2----------------44---4-22---2--------------------4-| 
E|-2ring--------------------55---5-22--44----------------55---5-2-2-2-4-4-4---| 

(Organ thing at the end) 
G|-----------------| 
D|-----------------| 
A|---2ring---------| 
E|----------0ring--| 

Here Ya Go! 
BassD 
            
Submit corrections

comments powered by Disqus
↑ Back to top | Randy Bass for Whom To Blame. Lyrics for acoustic guitar and electric guitar. 1 Tablatures and chords are parodies/interpretations of the original songs. You may use it for private study, scholarship, research or language learning purposes only