>
 >
They Fear Us Perfect

They Fear Us Perfect Bass Tabs

Randy - They Fear Us Perfect chords, tabs, tablatures, lyrics

Guitar lessons | Add/correct | Request | Top 50 tabs Artists:  A B C D E F G H I J K L M N O P Q R S T U V W X Y Z 0-9

They Fear Us Perfect Bass Tabs – Randy

CD, Sheet music, Poster

Do you like They Fear Us Perfect? Share with your friends now
Bass Tabs
Intro:
Try this(no Tone)
         
        X27
G----------||
D----------||
A----------||
E-5--5-5-5-||-5-2--0 let ring

Now change tone: turn it to high while the A ring,
you have the time.

Verse: 
  A             E             Gb            D      
G---------------------------------------------------------
D---------------------------------------------------------
A-------------------------------------------5--5-5-5-4-2-4
E-5--5-5-5--5-5-0--0-0-0--0-0-2--2-2-2--2-2---------------
Pm________________________________________________________

  A             Ab             Gb           D      
G---------------------------------------------------------
D---------------------------------------------------------
A-------------------------------------------5--5-5-5------
E-5--5-5-5--5-5-4--4-4-4--4-4-2--2-2-2--2-2---------4-----
Pm__________________________________________________

  A             E             Gb            D      
G---------------------------------------------------------
D---------------------------------------------------------
A-------------------------------------------5--5-5-5-4-2-4
E-5--5-5-5--5-5-0--0-0-0--0-0-2--2-2-2--2-2---------------
Pm________________________________________________________
 
  A             Ab             Gb           E      
G-----------------------------------------------------------------
D-----------------------------------------------------------------
A-----------------------------------------------------------------
E-5--5-5-5--5-5-4--4-4-4--4-4-2--2-2-2--2-2-0--0-0-0--0-0-0--0-0-0
Pm________________________________________________________________

Pre-Chorus:
  D                          Gb
G-----------------------------------------------------
D-----------------------------------------------------
A-5--5--5-5-5-5--5-5--5-5-5--9--9--9-9-9-9--9-9--9-9-9
E-----------------------------------------------------

  D                          A           E
G-----------------------------------------------------
D-----------------------------------------------------
A-5--5--5-5-5-5--5-5--5-5-5--------------7--7-7--7-7-7
E----------------------------5--5--5-5-5--------------
  D           Gb             G#
G-------------------------------
D-------------------------------
A-5--5--5-5-5-9--9-9--9-9-9--11~
E-------------------------------

Chorus:
  A               Ab              Gb              E      
G----------------------------------------------------------------
D----------------------------------------------------------------
A----------------------------------------------------------------
E-5-5-5-5-5-5-5-5-4-4-4-4-4-4-4-4-2-2-2-2-2-2-2-2-0-0-0-0-0-0-0-0

  D               E               D               E       
G----------------------------------------------------------------
D-------------------------6-9-6-9-------------------------6-9-6-9
A-5-5-5-5-5-5-5-5-7-7-7-7---------5-5-5-5-5-5-5-5-7-7-7-7--------
E----------------------------------------------------------------

  A                                                           E
G------------------------------------------------------------------------------
D------------------------------------------------------------------------------
A------------------------------------------------------------------------------
E-5--5-5--5-5--5-5--5-5--5-5--5-5--5-5--5-5--5-5--5-5--5-5--5-0--0-0-0-0--0-0-0

Verse:
  A               E               Gb               D 
G-----------------------------------------------------------------
D-----------------------------------------------------------------
A--------------------------------------------------5-5-5-5-5-5-5-5
E-5-5-5-5-5-5-5-5-0-0-0-0-0-0-0-0-2-2-2-2-2-2-2-2-----------------
Pm________________________________________________________________

  A               Ab              Gb              D      
G----------------------------------------------------------------
D----------------------------------------------------------------
A-------------------------------------------------5-5-5-5-5-5-5-5
E-5-5-5-5-5-5-5-5-4-4-4-4-4-4-4-4-2-2-2-2-2-2-2-2----------------
Pm_______________________________________________________________

  A            E            Gb           D
G---------------------------------------------------
D---------------------------------------------------
A----------------------------------------5--5-5--5-5
E-5--5-5--5-5--0--0-0--0-0--2--2-2--2-2-------------

  A            Ab           Gb                       E
G-----------------------------------------------------------------------------------
D-----------------------------------------------------------------------------------
A-----------------------------------------------------------------------------------
E-5--5-5--5-5--4--4-4--4-4--2--2-2--2-2-2--2-2--2-2--0-0-0-0-0-0-0-0-0-0-0-0-0-0-0-0


Pre-Chorus:
  D                          Gb
G---------------------------------------11-9----9-11-9
D------------------------------------11------11-------
A-5--5--5-5-5-5--5-5--5-5-5--9--9--9------------------
E-----------------------------------------------------

  D                          A           E
G-7--7--7-7-7-7--7-7--7-7-7---------------------------
D-----------------------------------------------------
A----------------------------------------7--7-7--7-7-7
E----------------------------5--5--5-5-5--------------
  
  D           Gb             G#
G-------------------------------
D-------------------------------
A-5--5--5-5-5-9--9-9--9-9-9--11~
E-------------------------------

Chorus:
  A               Ab              Gb              E      
G----------------------------------------------------------------
D----------------------------------------------------------------
A----------------------------------------------------------------
E-5-5-5-5-5-5-5-5-4-4-4-4-4-4-4-4-2-2-2-2-2-2-2-2-0-0-0-0-0-0-0-0

  D               E               D               E       
G----------------------------------------------------------------
D-------------------------6-9-6-9-------------------------6-9-6-9 X2
A-5-5-5-5-5-5-5-5-7-7-7-7---------5-5-5-5-5-5-5-5-7-7-7-7--------
E----------------------------------------------------------------

End:
  A      B          C#
G------------------------------
D------------------------------
A-0------2--0-2-2-0-4---0-4-4-2
E------------------------------


Add me to your list!





Comments


Popular Randy tabs & chords
Superstar Bass Tabs
Superstar 1 Bass Tabs
The Exorcist Bass Tabs
Queen Ifrica Chords
Addicts Of Communication Tabs
I Raise My Fist Tabs
Now And Forever Tabs
Step Outside Tabs
X-Ray Eyes Tabs
X-ray Eyes Ukulele


Song lyrics



↑ Back to top | Tablatures and chords are parodies/interpretations of the original songs. You may use it for private study, scholarship, research or language learning purposes only
© 2014 AZChords.com Contact us | Privacy policy | DMCA | Add/correct tabs | Request tabs | Top 50 tabs