» » »

Randy, Step Outside Tabs (ver.1)

Artists:  A B C D E F G H I J K L M N O P Q R S T U V W X Y Z # 

Step Outside Tabs (ver.1)

Randy Tabs
Rating:
5/5 (1 vote)
Step Outside lessons Tabs too difficult? Try these video lessons and learn fast
                Randy - Step Outside

Instrument: Guitar
Tuning: eBGDAE



Intro / Verse

e||------------------------|-----------------------|
B||------------------------|-----------------------|
G||----9--9-----9--9--9----|------9-----------9----|
D||-9--9--9--9--9--9--9--9-|-9--9-9--7---9--9-9--7-|
A||-9--7--7--9--7--7--7--9-|-9--9-7--7---9--9-7--7-|
E||-7--------7-----------7-|-7--7----5---7--7----5-|


Pre-Chorus

e||---------------------------|---------------------------|
B||---------------------------|---------------------------|
G||------6---------4----------|------6----7-7-7-7-8-8-8-8-|
D||-6----6----4----4--4--6--7-|-6----6----7-7-7-7-8-8-8-8-|
A||-6----4----4----2--4--6--7-|-6----4----5-5-5-5-6-6-6-6-|
E||-4---------2-------2--4--5-|-4-------------------------|


Chorus

e||---------------------|--------------------|
B||---------------------|--------------------|
G||-9--9------------9---|---------6-6--------|
D||-9--9--9--9--7-7-9---|-6---6---6-6---7-7--|
A||-7--7--9--9--7-7-7---|-6---6---4-4---7-7--| 
E||-------7--7--5-5-----|-4---4---------5-5--| x2


Verse

e||------------------------|-----------------------|
B||------------------------|-----------------------|
G||----9--9-----9--9--9----|------9-----------9----|
D||-9--9--9--9--9--9--9--9-|-9--9-9--7---9--9-9--7-|
A||-9--7--7--9--7--7--7--9-|-9--9-7--7---9--9-7--7-|
E||-7--------7-----------7-|-7--7----5---7--7----5-| x2


e||---------------------|-----------------------|
B||---------------------|-----------------------|
G||-----------9---------|------9-----------9----|
D||-9---------9---------|-9--9-9--7---9--9-9--7-|
A||-9---------7---------|-9--9-7--7---9--9-7--7-|
E||-7-------------------|-7--7----5---7--7----5-| x4


Pre-Chorus

e||---------------------------|---------------------------|
B||---------------------------|---------------------------|
G||------6---------4----------|------6----7-7-7-7-8-8-8-8-|
D||-6----6----4----4--4--6--7-|-6----6----7-7-7-7-8-8-8-8-|
A||-6----4----4----2--4--6--7-|-6----4----5-5-5-5-6-6-6-6-|
E||-4---------2-------2--4--5-|-4-------------------------|


Chorus

e||---------------------|--------------------|
B||---------------------|--------------------|
G||-9--9------------9---|---------6-6--------|
D||-9--9--9--9--7-7-9---|-6---6---6-6---7-7--|
A||-7--7--9--9--7-7-7---|-6---6---4-4---7-7--|
E||-------7--7--5-5-----|-4---4---------5-5--| x2

end with

e||-----|
B||-----|
G||--9--|
D||--9--|
A||--7--|
E||-----|
            

comments powered by Disqus
↑ Back to top | Randy Tabs for Step Outside. Lyrics for acoustic guitar and electric guitar. Tablatures and chords are parodies/interpretations of the original songs. You may use it for private study, scholarship, research or language learning purposes only