>
 >
Now And Forever

Now And Forever Guitar Tabs

Randy - Now And Forever chords, tabs, tablatures, lyrics

Guitar lessons | Add/correct | Request | Top 50 tabs Artists:  A B C D E F G H I J K L M N O P Q R S T U V W X Y Z 0-9

Now And Forever Guitar Tabs – Randy

CD, Sheet music, Poster

Do you like Now And Forever? Share with your friends now
Tabs
Randy - Now And Forever

Instrument: Guitar
Tuning: eBGDAE



Intro

e||---------------|----------------------------|---------------------|
B||---------------|----------------------------|---------------------|
G||---------------|-----5-----5-----5----------|-----5-----5-----5---|
D||-7-6-----------|-7---5-5---5-3---5-2-2--5-5-|-7---5-5---5-3---5-2-|
A||-----8-7-5-----|-7---3-5---3-3---3-2-2--7-7-|-7---3-5---3-3---3-2-|
E||-----------8-7-|-5-----3-----1-----0-0--4-4-|-5-----3-----1-----0-| x2


Verse

e||-------------------------------------|--------------------|
B||-------------------------------------|--------------------|
G||-----5----------------5--------------|-----5--------------|
D||-7---5-5----------7---5-2-2--6-6-----|-7---5-5----------2-|
A||-7---3-5----------7---3-2-2--7-7-----|-7---3-5----------2-|
E||-5-----3--8-7-5-3-5-----0-0--4-4-(3x)|-5-----3--8-7-5-3-0-|


Pre-Chorus

e||---------------------------|
B||----3--------3--3----------|
G||----4--7--6--4--4----------|
D||-5--4--7--7--4--4--5-------|
A||-5--2--5--4--2--2--5---2-4-|
E||-3-----------------3-5-----|


Chorus

e||-----------------|
B||-----------------|
G||-7---6-----------|
D||-7---7---5---4-2-|
A||-5---4---5---4-2-|
E||---------3---2-0-|


Break
e||----------------------------|---------------------|
B||----------------------------|---------------------|
G||-----5-----5-----5----------|-----5-----5-----5---|
D||-7---5-5---5-3---5-2-2--5-5-|-7---5-5---5-3---5-2-|
A||-7---3-5---3-3---3-2-2--7-7-|-7---3-5---3-3---3-2-|
E||-5-----3-----1-----0-0--4-4-|-5-----3-----1-----0-|

e||---------------|
B||---------------|
G||---------------|
D||-7-6-----------|
A||-----8-7-5-----|
E||-----------8-7-|


Verse

e||-------------------------------------|--------------------|
B||-------------------------------------|--------------------|
G||-----5----------------5--------------|-----5--------------|
D||-7---5-5----------7---5-2-2--6-6-----|-7---5-5----------2-|
A||-7---3-5----------7---3-2-2--7-7-----|-7---3-5----------2-|
E||-5-----3--8-7-5-3-5-----0-0--4-4-(3x)|-5-----3--8-7-5-3-0-|


Pre-Chorus

e||---------------------------|
B||----3--------3--3----------|
G||----4--7--6--4--4----------|
D||-5--4--7--7--4--4--5-------|
A||-5--2--5--4--2--2--5---2-4-|
E||-3-----------------3-5-----|


Chorus

e||-----------------|
B||-----------------|
G||-7---6-----------|
D||-7---7---5---4-2-|
A||-5---4---5---4-2-|
E||---------3---2-0-|


Bassbreak then
e||----------------------|-----------------|
B||----------------------|-----------------|
G||---------5------------|--------5--------|
D||-7-------5------5-----|-7------5------5-|
A||-7-------3-(8x)-5-----|-7------3-(8x)-5-|
E||-5-(16x)--------3-(8x)|-5-(16x)-------3-|
PM  .......................................

e||----------------------|----------------------|-----------------|
B||----------------------|----------------------|-----------------|
G||---------5------------|---------5------------|-----------------|
D||-7-------5------5-----|-7-------5------5-----|-----------------|
A||-7-------3-(8x)-5-----|-7-------3-(8x)-5-----|-----------------|
E||-5-(16x)--------3-(8x)|-5-(16x)--------3-(8x)|-5--3--5--3--5-3-|


Chorus

e||-----------------|
B||-----------------|
G||-7---6-----------|
D||-7---7---5---4-2-|
A||-5---4---5---4-2-|
E||---------3---2-0-| x2

End
e||---------------------|
B||---------------------|
G||-----5-----5-----5---|
D||-7---5-5---5-3---5-2-|
A||-7---3-5---3-3---3-2-|
E||-5-----3-----1-----0-|

e||---------------|-----|
B||---------------|-----|
G||---------------|-----|
D||-7-6-----------|--7--|
A||-----8-7-5-----|--7--|
E||-----------8-7-|--5--|





Comments


Popular Randy tabs & chords
Addicts Of Communication Bass Tabs
Holy *** Bass Tabs
Me And The Boys Bass Tabs
Me And The Boys 1 Bass Tabs
The Exorcist 1 Bass Tabs
They Fear Us 1 Bass Tabs
Whom To Blame Bass Tabs
Zoolou Bass Tabs
Humanalogism Tabs
Little Toulouse Tabs


Song lyrics



↑ Back to top | Tablatures and chords are parodies/interpretations of the original songs. You may use it for private study, scholarship, research or language learning purposes only
© 2014 AZChords.com Contact us | Privacy policy | DMCA | Add/correct tabs | Request tabs | Top 50 tabs