>
 >
Me And The Boys

Me And The Boys Guitar Tabs

Randy - Me And The Boys chords, tabs, tablatures, lyrics

Guitar lessons | Add/correct | Request | Top 50 tabs Artists:  A B C D E F G H I J K L M N O P Q R S T U V W X Y Z 0-9

Me And The Boys Guitar Tabs – Randy

CD, Sheet music, Poster

Do you like Me And The Boys? Share with your friends now
Bass TabsBass Tabs v2Tabs
-------------------------------------------------------------------------------
-------------------------------------------------------------------------------

Tuning: normal tuning


E|--------------|            E|-------------------------------|
B|--------------|            B|-------------------------------|
G|-5------------| x3 times   G|-5---------------------------5-|
D|-5-333-55-333-|            D|-3-333-55-333-55-------------5-|
A|-3-333-55-333-|            A|-3-333-55-333-55-------0h1h2-3-|
E|---111-33-111-|            E|---111-33-111-33-1h2h3---------|




E|--------------
B|--------------
G|------------5- x4 times
D|--------------
A|-333-55-333---
E|-111-33-111---
Pm ... .. ...   


E|-----------------------------------------------------------------------------|
B|-----------------------------------------------------------------------------|
G|------------------------------------------------------------5----------------|
D|----7--7---5-5----3--3---5566—-7—-7----5—-5----3—-3—--5--6-------------------|
A|-----—-----------------------------------------------------------------------|
E|--55-55—-33-33--11-11—-3344—-55-55---33-33---11-11—-33-44--------------------|

 
E|--------------
B|--------------
G|------------5- x4 times
D|------------5-
A|-333-55-333-3-
E|-111-33-111---
Pm ... .. ...   

E|-----------------------------------------------------------------------------|
B|-----------------------------------------------------------------------------|
G|------------------------------------------------------------555--------------|
D|----7--7---5-5----3--3---5566—-7—-7----5—-5----3—-3—--5--6--333--------------|
A|-----—------------------------------------------------------333--------------|
E|--55-55—-33-33--11-11—-3344—-55-55---33-33---11-11—-33-44--------------------|

Chorus

E|---------------------------------------------------------------------------|
B|---------------------------------------------------------------------------|
G|-------555555----------------------555555----------------------------------|
D|-------555555-555555-222222-333333-555555-555555-222222-333333-------------|
A|-------333333-555555-222222-333333-333333-555555-222222-333333-------------|
E|--------------333333-000000-111111--------333333-000000-111111-------------|

Then everything before the chorus repeats. Τhen:
Ε|------------------------------------------------------------------------------|
Β|------------------------------------------------------------------------------|
Γ|---8888-10101010-7777-10101010-8888-10101010---------------8888-10101010-77---|
Δ|---8888-10101010-7777-10101010-8888-10101010---8-7-5-3-----8888-10101010-77---|
Α|---6666-8-8-8-8--5555-8-8-8-8--6666-8-8-8-8----8-7-5-3-----6666-8-8-8-8--55---|
Ε|-----------------------------------------------6-5-3-1------------------------|
 

|------------------------------------------------------------------------------|
|------------------------------------------------------------------------------|
|----------8888--10101010------------------------------------------------------|
|-10-------8888--10101010---------------------------8-7-5-3--------------------|
|-10-------6666--8-8-8-8----------------------------8-7-5-3--------------------|
|-8-------------------------6-5-3-1-6-5-3-1-6-5-3-1-6-5-3-1--------------------|
                                                    | | | |
This ones with the pick up and down really fast-----|-|-|-|


Chorus again


And then, the solo part:



E|------------3—-1-0-----------------------------3—3/1-0------------------|
B|------0/2/3--------3----1-3-5-6-5-3-1---0/1/3---------—3---1-0-1>-5>----|
G|-0/2/3---------------------------------------------------------------5>-|
D|---------------------------------------------------------------------5>-|
A|---------------------------------------------------------------------3>-|
E|------------------------------------------------------------------------|

| /  slide up
| \  slide down
| >  let ring
===============================================================================





Comments


Popular Randy tabs & chords
Adicts Of Communication Bass Tabs
Holy *** Bass Tabs
Me And The Boys Bass Tabs
Me And The Boys 1 Bass Tabs
Superstar Bass Tabs
The Exorcist Bass Tabs
They Fear Us Perfect Bass Tabs
Addicts Of Communication Tabs
Little Toulouse Tabs
Razorblade Intro Tabs


Song lyrics



↑ Back to top | Tablatures and chords are parodies/interpretations of the original songs. You may use it for private study, scholarship, research or language learning purposes only
© 2014 AZChords.com Contact us | Privacy policy | DMCA | Add/correct tabs | Request tabs | Top 50 tabs