>
 >
Little Toulouse

Little Toulouse Guitar Tabs

Randy - Little Toulouse chords, tabs, tablatures, lyrics

Guitar lessons | Add/correct | Request | Top 50 tabs Artists:  A B C D E F G H I J K L M N O P Q R S T U V W X Y Z 0-9

Little Toulouse Guitar Tabs – Randy

CD, Sheet music, Poster

Do you like Little Toulouse? Share with your friends now
Tabs

I search the web for this tab but I could t find it so I decide to tab it.
Standards tuning.      h: hammer    p: pull-off    

Oh and for those who didn't know x4 = play four time and x8 means play 8 times.

Intro;

Part 1:   (play once)

E-----------------------------------------------
B-----------------------------------------------
G----------------------------5-5---6-6---7-7----
D-------3---4----5-----9-----5-5---6-6---7-7----
A-------3---4----5x4---9x4---3-3---4-4---5-5----
E-------1---2----3-----7------------------------


Part 2:   (repeat three time)

E----------------------------------------------------
B----------------------------------------------------
G-----------------------------------5-5---6-6---7-7--
D----------------------5----9-------5-5---6-6---7-7--
A----------------------5x4--9x4-----3-3---4-4---5-5--
E---0-h3-h5-3p---------3----7------------------------


Verse 1 : 

               Cb       C       D
E------3--3----7-7----8--8----5--5-------------------------
B------3--3----7-7----8--8----7--7-------------------------
G------4--4----7-7----9--9----7--7-------------------------
D------5--5----9-9----10-10--------------------------------
A------5--5----9-9-----------------------------------------
E---------------------------------------0-h3-h5-3p-0p------


           G       Cb       C       D
E---------3--3----7-7----8--8----5--5--------------------
B---------3--3----7-7----8--8----7--7--------------------
G---------4--4----7-7----9--9----7--7--------------------
D---------5--5----9-9----10-10---------------------------
A---------5--5----9-9------------------------------------
E--------------------------------------7-7--5-5--3-3--0-- 


           G       Cb      C       D

E--------3--3----7-7----8--8----5--5-----------------------
B--------3--3----7-7----8--8----7--7-----------------------
G--------4--4----7-7----9--9----7--7-----------------------
D--------5--5----9-9----10-10------------------------------
A--------5--5----9-9---------------------------------------
E---------------------------------------0-h3-h5-3p-0p------


Chorus 1:

E---------------------------------------
B---------------------------------------
G-------------5---7------------5---7----
D---5----9----5x4-7x4----2-----5x4-7x8--  
A---5x4--9x4--3---5------2x4---3---5----
E---3----7---------------0--------------


E--------------------------------------
B--------------------------------------
G------5--6--7-------------------------
D---2--5--6--7--3--4--5----------------
A---2--3--4--5--3--4--5----------------
E---0-----------1--2--3----------------


Verse 2: repeat verse 1

Chorus 2 :      

E------------------------------------
B------------------------------------
G-------------5---7----------5---7---
D--5----9-----5x4-7x4--2-----5x4-7x8-  
A--5x4--9x4---3---5----2x4---3---5---
E--3----7--------------0-------------


E----------------------------------------
B----------------------------------------
G--------------5----7-----------5----7---
D---5----9-----5x4--7x4---2-----5x4--7x4-
A---5x4--9x4---3----5-----2-x4--3----5---
E---3----7----------------0--------------

E------------------------------------
B------------------------------------                      
G--------------------------7-7-6-5---
D----5----4---2----3----2--7-7-6-5---  
A----5x8--4---2x4--3x4--2--5-5-4-3---
E----3----2---0----1----0------------

E----------------------------------
B----------------------------------
G-------------------------5-5-7-7-- 
D----5----4--2----3---2---5-5-7-7--
A----5x8--4--2x4--3x4-2x4-3-3-5-5--
E----3----2--0----1---0------------


Verse 3:  Let chords ring....

E-----3-------7-------8-------5---------------
B-----3-------7-------8-------7---------------
G-----4-------7-------9-------7---------------
D-----5-------9-------10----------------------
A-----5-------9-------10----------------------
E---------------------------------------------

Over verse 3 comes the solo... Sorry I didn't tab yet :-S  I'm working on it


Then comes the last chorus...


E----------------------------------------    
B----------------------------------------   
G--------------5----7-----------5---7---- 
D---5----9-----5x4--7x4---2-----5x4-7x4--  
A---5x4--9x4---3----5-----2x4---3---5----
E---3----7----------------0--------------

E----------------------------------------    
B----------------------------------------   
G--------------5----7-----------5---7---- 
D---5----9-----5x4--7x4---2-----5x4-7x4--  
A---5x4--9x4---3----5-----2x4---3---5----
E---3----7----------------0--------------

E------------------------------------
B------------------------------------
G------5--6--7-----------------------
D---2--5--6--7--3--4--5--------------
A---2--3--4--5--3--4--5--------------
E---0-----------1--2--3--------------


End on... (let ring)

E--------------------------                   
B--------------------------
G--------------------------
D----5---------------------
A----5---------------------
E----3---------------------



Plz rate this tab... And if you have the solo e-mail it to me.  I can't figure it out.





Comments


Popular Randy tabs & chords
Addicts Of Communication 1 Bass Tabs
Holy *** Bass Tabs
Me And The Boys 1 Bass Tabs
Superstar 1 Bass Tabs
The Exorcist 1 Bass Tabs
They Fear Us 1 Bass Tabs
They Fear Us Perfect Bass Tabs
X-ray Eyes Chords
Addicts Of Communication Tabs
Queen Ifrica Ukulele


Song lyrics



↑ Back to top | Tablatures and chords are parodies/interpretations of the original songs. You may use it for private study, scholarship, research or language learning purposes only
© 2014 AZChords.com Contact us | Privacy policy | DMCA | Add/correct tabs | Request tabs | Top 50 tabs