» » »

Holy *** Bass tabs (ver.1)

Artists:  A B C D E F G H I J K L M N O P Q R S T U V W X Y Z # 

Holy *** Bass tabs (ver.1)

Randy
Rating:
0/5 (0 votes)

Hard to play? Try these video lessons and learn fast.
                Standard Tuning

G-------------------
D-------------------
A-2-2-----2-2-------
E-----2-2-----2-----

Verse:
G-------------------
D-------------------
A-2-2-----2-2------- X10
E-----2-2-----2--2-2

Chorus:
G---------------------------------
D-----------1-2-4-------4---------
A---------2---------1-4----2-2-2-2
E-0-0-0-0---------2---------------

Verse (X8) There is a pause too at this verse

Chorus:
G---------------------------------
D-----------1-2-4-------4---------
A---------2---------1-4----2-2-2-2
E-0-0-0-0---------2---------------

G---------------------------------
D-----------1-2-4-------4---------
A---------2---------1-4-----------
E-0-0-0-0---------2-------4-4-4-4-

G---------------------------------
D-----------1-2-4-------4---------
A---------2---------1-4----2------
E-0-0-0-0---------2---------------

Outro:
A-2-2-2-2-2

Very Very easy song, the song time is 1 min so I think you're okay for play it.
            
Hard to play? Try these video lessons and learn fast. | Correct




comments powered by Disqus
↑ Back to top | Tablatures and chords are parodies/interpretations of the original songs. You may use it for private study, scholarship, research or language learning purposes only