» » »

Rancid, YOU DON't CARE NOTHIN' Bass tabs (ver.3)

Artists:  A B C D E F G H I J K L M N O P Q R S T U V W X Y Z # 

YOU DON't CARE NOTHIN' Bass tabs (ver.3)

Rancid Tabs
 Rating:
4/5 (4 votes)
YOU DON't CARE NOTHIN' lessons Tabs too difficult? Try these video lessons and learn fast
                Intro:
G|----------------------------------------------------|
D|----------------------------------------------------|
A|-33--00---023--00---023--00-------------------------|
E|---33--311---33--311---33--111111110000000000000000-|

Verse:
G|----------------------------------------------------------------------|
D|----0-----------------20-------0----0------------------22334455555320-|
A|-0-0-3-0------------33--30----3--0-0-3-0-------------33---------------|
E|--------3-1-11-0-1-3------3-33--3-------3-1-11-0-1-3------------------|

G|------------------------------------------------------------------|
D|------------------------------------------------------------------|
A|-00000000--------33333333--------00000000--------33333333---------|
E|---------11111111--------33333333--------11111111--------33333333-|

Chorus:
G|----0-2-0---0--------------------------0-2-0---0----------------|------|
D|---------3-3-3-2-0---0----------------------3-3-3-2-0---0-------|------|
A|-3-3--------------3-3-3-2-0----0-2-3-33--------------3-3-3-2-0--|------|
E|---------------------------3-33-------------------------------3-|-1111-|
            
Submit corrections

comments powered by Disqus
↑ Back to top | Rancid Bass for YOU DON't CARE NOTHIN'. Lyrics for acoustic guitar and electric guitar. Tablatures and chords are parodies/interpretations of the original songs. You may use it for private study, scholarship, research or language learning purposes only