» » »

Rancid, YOU DON't CARE NOTHIN' Bass tabs (ver.1)

Artists:  A B C D E F G H I J K L M N O P Q R S T U V W X Y Z # 

YOU DON't CARE NOTHIN' Bass tabs (ver.1)

Rancid Tabs
 Rating:
4/5 (4 votes)
YOU DON't CARE NOTHIN' lessons Tabs too difficult? Try these video lessons and learn fast
1
                =play a couple of time
					p=pull of

Intro
G|-17-------------------|
D|-----17--19--15-------|
A|----------------------|
E|----------------------|

G|---------------------------------------------------------------------|
D|---------------------------------------------------------------------|
A|-3-------------0-1-2-3-------------0-1-2-3---------------------------|
E|---333-555-111---------333-555-111---------333-555-111--1-3-0>-------|

Verse
G|----------------------------------------------------------------------|
D|--------------------------------------2p0------------0-2-0------------|
A|-0--0-0-3-2-0------------0-1-2-3--3-3-----2p0------2------------------|
E|--------------3-1--1-1-1----------------------3--3--------------------|

G|----------------------------------------------------------------------|
D|--------------------------------------2-0-2-3-5--5-5-5-3-2-0----------|
A|-0--0-0-3-2-0------------0-1-2-3--3-3---------------------------------|
E|--------------3-1--1-1-1----------------------------------------------|

G|-----------------------------------------------------|
D|------------------------5-5-5-5-5-3-2-0--------------|
A|-0>----3>-----0>----3>-------------------------------|
E|----1>----3>-----1>----------------------------------|

Chorus
G|----------0-2-0--------2p0--------------------------------------------|
D|--------2-------3--3-3-----2p0--------2p0-----------------------------|
A|-3--3-3------------------------3--3-3-----2p0------0-1-2-5------------|
E|----------------------------------------------1--1--------------------|

G|----------0-2-0--------2p0-------------------------------------------------------------------------|
D|--------2-------3--3-3-----2p0--------2p0----------------------------------------------------------|
A|-3--3-3------------------------3--3-3-----2p0------0-2-0-------------0-0-0-0-1-1-1-1-3-3-3-3-------|
E|----------------------------------------------3--3-------3-0-1-1-1-1-------------------------------|

(Verse)

(Chorus)
Then this
G|-17----------14-15-16-17--------------------|
D|----17-19-15-------------17-19-15-----------|
A|--------------------------------------------|
E|--------------------------------------------|

G|-------------------------------------------|
D|-------------------------------------------|
A|-3-----------------------------------------|
E|---333-555-111--1-3-0>---------------------|

Verse"About me"
G|---------------------------------------------------------------------|
D|--------------------------------------2p0------------0-2-0-----------|
A|-0--0-0-3-2-0------------0-1-2-3--3-3-----2p0------2-----------------|
E|--------------3-1--1-1-1----------------------3--3-------------------|

G|---------------------------------------------------------------------|
D|--------------------------------------2-0-2-3-5--5-5-5-3-2-0---------|
A|-0--0-0-3-2-0------------0-1-2-3--3-3--------------------------------|
E|--------------3-1--1-1-1---------------------------------------------|

(Chorus x1)
Then this x3
G|-----------------------------------------------------------------------|
D|--------2p0------------------------------------------------------------|
A|-3--3-3-----2p0------0-2-0-------------0-0-0-0-1-1-1-1-3-3-3-3---------|
E|----------------3--3-------3-0-1-1-1-1---------------------------------|

End on A|-3-----|
            
Submit corrections

comments powered by Disqus
↑ Back to top | Rancid Bass for YOU DON't CARE NOTHIN'. Lyrics for acoustic guitar and electric guitar. 1 Tablatures and chords are parodies/interpretations of the original songs. You may use it for private study, scholarship, research or language learning purposes only