» » »

Rancid, Vanilla Sex Tabs (ver.2)

Artists:  A B C D E F G H I J K L M N O P Q R S T U V W X Y Z # 

Vanilla Sex Tabs (ver.2)

Rancid Tabs
 Rating:
4/5 (4 votes)
Vanilla Sex lessons Tabs too difficult? Try these video lessons and learn fast
1
                e|------2-------2------------|
B|--1---3---1---3----2---2---|
G|--0---2---0---2----2---2---|
D|--2-------2--------2---2---| 
A|--3-------3----------------|
E|---------------------------|

e|------------------------------|
B|--6---8-------10---6---8------|
G|--5---7---9---9 ---5---7------|
D|--3---5---9---7 ---3---5------|      
A|----------7-------------------|
E|------------------------------|

e|--------------------------------------------|
B|--------------------------------------------|
G|------7--9------7--9------7--9---12--11--9--|
D|---9---------9---------9--------------------|
A|--------------------------------------------|
E|--------------------------------------------|

e|------------------------------|
B|------------------------------|
G|---5---7---5---7--------------|
D|---5---7---5---7----7---7-----|   
A|---3---5---3---5----7---7-----|
E|--------------------5---5-----|

e|------------------------------|
B|------------------------------|
G|------------------------------|
D|---3---5---2---7---3---5------|    
A|---3---5---2---7---3---5------|
E|---1---3---0---5---1---3------|

solo 2 - still workin sorry
TAB ADDED BY ERIC  FROM RADOM,
TIM! THIS ONE'S FOR YOU ;)
            
Submit corrections

comments powered by Disqus
↑ Back to top | Rancid Tabs for Vanilla Sex. Lyrics for acoustic guitar and electric guitar. 1 Tablatures and chords are parodies/interpretations of the original songs. You may use it for private study, scholarship, research or language learning purposes only