» » »

The Wars End Ukulele Chords (ver.1)

Artists:  A B C D E F G H I J K L M N O P Q R S T U V W X Y Z # 

The Wars End Ukulele Chords (ver.1)

Rancid
Rating:
0/5 (0 votes)

Hard to play? Try these video lessons and learn fast.
                Album:...and out come the wolves

For the intro just make a midified G, a D and a Cadd9 and play with these picking patterns


    G     D       Cadd9
E--3----------------------------------------------------------
B----3--------3-----------------------------------------------
G-----------2-----------0-----0------------------------------- Repeat 4x
D---------0-----------2-----0-----0---------------------------
A-----------------0-3-----2-----0-----------------------------
E-3-----------------------------------------------------------

Part when singing starts
   G     D     Cadd9
E---3---------------------------------------------------------
B---3---3-3--------------------------------------------------
G---0---2-2--------0-----0-----------------------------------
D-------0-0------2-----0-----0------------------------------- Repeat
A------------0-3-----2-----0---------------------------------
E-3----------------------------------------------------------

Went into his room...         Build on last D chord
E---3-3-3-3-3-2-2-2-2-3-3-3-2--------------------------------
B---3-3-3-3-3-3-3-3-3-3-3-3-3--------------------------------
G---0-0-0-0-0-2-2-2-2-0-0-0-2--------------------------------
D-----2-2-0-0-0-0-0-0-2-2-0-0--------------------------------
A-----3-3-2-2---------3-3-2----------------------------------
E-3-------3-3-------------3----------------------------------

Power chord Part 
E------------------------------------------------------------
B------------------------------------------------------------
G---------7-77777-555-4-------------------------------------- Repeat a bunch of times
D-5-55555-7-77777-555-4-77-----------------------------------
A-5-55555-5-55555-333-2-77-----------------------------------
E-3-33333---------------55-----------------------------------
    *****   *****

That is one perfect tab. Please rate.
            
Hard to play? Try these video lessons and learn fast. | Correct




comments powered by Disqus
↑ Back to top | Tablatures and chords are parodies/interpretations of the original songs. You may use it for private study, scholarship, research or language learning purposes only