>
 >
The Moron Brothers

The Moron Brothers Guitar Tabs

Rancid - The Moron Brothers chords, tabs, tablatures, lyrics

Guitar lessons | Add/correct | Request | Top 50 tabs Artists:  A B C D E F G H I J K L M N O P Q R S T U V W X Y Z 0-9

The Moron Brothers Guitar Tabs – Rancid

CD, Sheet music, Poster

Do you like The Moron Brothers? Share with your friends now
Tabs

Intro 
e------------------
b------------------
g-7/5---7/5---5/10-
d------------------
a-5/3---5/3---3/8--
E------------------

Intro  2x  ~=Let ring
e--------------------------------------------
b--------------------------------------------
g-5~--10-9-7-10-9-7-10-9-5-7-9-10--9757-9757-
d--------------------------------------------
a-3~---8-7-5--8-7-5--8-7-3-5-7--8--7535-7535-
E--------------------------------------------

Chorus  (Let each chord ring!)
e----------------
b----------------
g-5--------------
d-5---5---3---5--
a-3---5---3---5--
E-----3---1---3--

Solo   b=full bend
e---------------
b----8----------
g-7b---9-7-5----
d---------------
a---------------
E---------------

Verse 4x
PM  ________   ________   ________
e------------------------------------------
b------------------------------------------
g-5-55555555------------5-55555555--9-7-5--
d-5-55555555-3-33333333-5-55555555--9-7-5--
a-3-33333333-3-33333333-3-33333333--7-5-3--
E------------1-11111111--------------------

Then
e----------------------
b----------------------
g-55-77-1010-10-1010-9-
d-55-77-1010-10-1010-9-
a-33-55-8-8--8--8-8--7-
E----------------------

Then Chorus,Solo 

Then play this. Guitar 2 lets last chord fade. 
e---------------------------------
b---------------------------------
g-55-5-55---------77-7-77---------
d-55-5-55-33-3-33-77-7-77-33-3-33-
a-33-3-33-33-3-33-55-5-55-33-3-33-
E---------11-1-11---------11-1-11-

e-------------------------------------
b-------------------------------------
g-55-5-55---------77-7-77-------------
d-55-5-55-33-3-33-77-7-77-33-3-33--5~-
a-33-3-33-33-3-33-55-5-55-33-3-33--5~-  ~=let ring
E---------11-1-11---------11-1-11--3~-

Then play Chorus 2x

Last solo  b=Bend
e-----------------------
b-----8----------8------
g-7b---9-7-5--7b---9b-7-
d-----------------------
a-----------------------
E-----------------------

Outro   
e-----------------------------
b-----------------------------
g-555-------------555---------
d-555-555-333333--555-555-3~--
a-333-555-333333--333-555-3~--
E-----333-111111------333-1~--

Outro Guitar 2     XXxx=Fade
e-------------------------------
b----1b-1-----------------------
g-------------------------------  
d-------------------------3XXxx-
a-------------------------3XXxx-
E-------------------------1XXxx-
Talk'n bout the Moron Bros!!!!!

(Revised Oct.15th 2003)





Comments


Popular Rancid tabs & chords
Ben Zanotto 1 Bass Tabs
Bloodclot Bass Tabs
LET's GO 1 Bass Tabs
Meteor Of War Chords
Time Bomb Chords
Dead Bodies 1 Tabs
Hoover Street 1 Tabs
Dead Bodies Ukulele
Its Quite Alright Ukulele
Trenches Ukulele


Song lyrics



↑ Back to top | Tablatures and chords are parodies/interpretations of the original songs. You may use it for private study, scholarship, research or language learning purposes only
© 2014 AZChords.com Contact us | Privacy policy | DMCA | Add/correct tabs | Request tabs | Top 50 tabs