» » »

The Curtain Crawler Bass tabs (ver.1)

Artists:  A B C D E F G H I J K L M N O P Q R S T U V W X Y Z # 

The Curtain Crawler Bass tabs (ver.1)

Rancid
Rating:
0/5 (0 votes)

Tabs too difficult? Try these video lessons and learn fast.
                -------------------------------------------------------------------------------
			     The Curtain Crawler Bass Solo - Rancid
-------------------------------------------------------------------------------


Tuning: EADG

First part
G|----------------1-1-6-4-3-9-4-2-5-0-----9-----6-5-2-0-1-2-9-7-5-4-2-0------|
D|--------------5------------------------------------------------------------|
A|------6-9-9-9--------------------------------------------------------------|
E|--5-1-------------------------------0-0---0-0------------------------------|

Second part
G|---------------------------------------------------------------------------|
D|---------------------------------------------------------------------------|
A|-----------------------0~--33333333-00000000-------------------------------|
E|--0-5-9-8-1-4-7-4-8-3------------------------1-3-5-7-9-9-9-9-0~------------|

Third part (slap)
G|---------------------------------------------------------------------------|
D|---------------------------------------------------------------------------|
A|----9---8---1-2---4----------------------------------4-2-0-4-5-6------11~--|
E|--8---7---6-----5---9-5-8-7--------------0-1-2-3-4-5--------------0-9------|

Last part
G|---17-2-2-6-9-5-4-1-8-4-7-3-2-11-16------------------------------14--------|
D|------------------------------------15-------------------------------------|
A|---------------------------------------14----------------------------------|
E|--1---------------------------------------0-5-8-3-1-8-5-9-1-1-1-0---4-7-2-9|


| /  slide up
| \  slide down
| h  hammer-on
| p  pull-off
| ~  vibrato
| +  harmonic
| x  Mute note
===============================================================================
            
Tabs too difficult? Try these video lessons and learn fast.




comments powered by Disqus
↑ Back to top | Tablatures and chords are parodies/interpretations of the original songs. You may use it for private study, scholarship, research or language learning purposes only