» » »

Brews Bass tabs (ver.1)

Artists:  A B C D E F G H I J K L M N O P Q R S T U V W X Y Z # 

Brews Bass tabs (ver.1)

Rancid
Rating:
0/5 (0 votes)

Hard to play? Try these video lessons and learn fast.
                Note: Not really sure on the Chorus,  but you can just slide up and 
      down in time and it'll sound good enough.  You can barely hear
      the bass on the bridge and it's really late tonight so I'll
      add it when I figure it out sooner or later, but I've put in
      the root notes for now.  Hope you like it, have fun.

Key: / = slide up   \ = slide down  
     > = hit the note more times than I feel like typing
     ~ = bend

Opening:

G:----------------------------------------------------------------------
D:----------------------------------------------------------------------
A:----------------------------------------------------------------------
E:-2-/7-\2-/12-11-2-----------------------------------------------------

Chorus:

G:----------------------------------------------------------------------
D:----------------------------------------------------------------------
A:----------------------------------------------------------------------
E:-0-0-2-2-3-3-4-6-4-4-5-5-6-6-8-6-2-2-3-3-4-4-6-4-7-7-5-5-4-4-3-2------

                                                   | - solo 1st time
                                                       hold 2nd time

Solo:

G:----------------------------------------------------------------------
D:----------12----------12-------------------17-16-15-14----------------
A:-14-12-14----14-12-14----14-13-12----12-14-------------14-13-12-------
E:----------------------------------14----------------------------14-13-

G:----------------------------------------------------------------------------
D:----------------------12-------------------12-------------------------------
A:-------------12-13-14----14-13-12-------14----14-12-14----12-14-12-14~-12~\-
E:-12-13-14-15----------------------14-12----------------14-------------------

Verse:

G:----------------------------------------------------------------------
D:----------------2>>>-1>>>-4>>>----------------------------------------
A:-2>>>-/4------2----------------7-5-4----------------------------------
E:---------2>>>---------------------------------------------------------

G:----------------------------------------------------------------------
D:----------------2>>>-1>>>-4>>>----------------------------------------
A:-2>>>-/4------2----------------2>>>-----------------------------------
E:---------2>>>---------------------------------------------------------

(Chorus Again)

Bridge:

G:----------------------------------------------------------------------
D:----------------------------------------------------------------------
A:-5>>>-----------------------------------------------------------------
E:------5>>>-0>>>-3>>>--------------------------------------------------

Ending Verse:

G:----------------------------------------------------------------------
D:----------------------------------------------------------------------
A:----------------5-3-2-0----------------5------------------------------
E:-3>>>-3>>>-5>>>---------3>>>-3>>>-5>>>--------------------------------

Outro:

G:----------------------------------------------------------------------
D:----------------------10----------------------------------------------
A:-5>>>-5-6-7-8-9-10-12----10-12-10----10----10~------5\----------------
E:----------------------------------12----12-----12~\-------------------
            
Hard to play? Try these video lessons and learn fast. | Correct




comments powered by Disqus
↑ Back to top | Tablatures and chords are parodies/interpretations of the original songs. You may use it for private study, scholarship, research or language learning purposes only