>
 >
Tattoo

Tattoo Guitar Tabs

Rancid - Tattoo chords, tabs, tablatures, lyrics

Guitar lessons | Add/correct | Request | Top 50 tabs Artists:  A B C D E F G H I J K L M N O P Q R S T U V W X Y Z 0-9

Tattoo Guitar Tabs – Rancid

CD, Sheet music, Poster

Do you like Tattoo? Share with your friends now
Bass TabsTabs
Standard Tuning:

Intro:

E---------------------------------------------------|
B---------------------------------------------------|
G------3----5------------------3----5----8-7-8-7-5-4|
D-5----3----5----5--------5----3----5----8-7-8-7-5-4|
A-5----1----3----5--------5----1----3----6-5-6-5-3-2|
E-3--------------3--------3-------------------------|

Verse:

E--------------------------------------------|
B--------------------------------------------|
G---------------------------------8-8--------|
D-5-5-5-5-5-5-5-5-5-5-5-5-5-5-5-5-8-8-8-8-7-5|
A-5-5-5-5-5-5-5-5-5-5-5-5-5-5-5-5-6-6-8-8-7-5|   x2
E-3-3-3-3-3-3-3-3-3-3-3-3-3-3-3-3-----6-6-5-3|

Chorus:

E--------------------------------------------------------------------|
B--------------------------------------------------------------------|
G-8-8-8-8-8-8-8-8-8-8------------------------------------------------|
D-8-8-8-8-8-8-8-8-8-8-8-8-8-8-8-8-8-8-3-3-3-3-3-3-3-3-8-8-8-8-8-8-8-8|
A-6-6-6-6-6-6-6-6-6-6-8-8-8-8-8-8-8-8-3-3-3-3-3-3-3-3-8-8-8-8-8-8-8-8|   x2
E---------------------6-6-6-6-6-6-6-6-1-1-1-1-1-1-1-1-6-6-6-6-6-6-6-6|


(Bass Solo)


Bridge:

E------------------------------------------------------------------------|
B------------------------------------------------------------------------|
G-----------------8-8-8-8-8-8-8-8----------------------------------------|
D-5-5-5-5-5-5-5-5-8-8-8-8-8-8-8-8-8-8-8-8-8-8-8-8-10-10-10-10-10-10-10-10|
A-5-5-5-5-5-5-5-5-6-6-6-6-6-6-6-6-8-8-8-8-8-8-8-8-10-10-10-10-10-10-10-10|x2
E-3-3-3-3-3-3-3-3-----------------6-6-6-6-6-6-6-6--8--8--8--8--8--8--8--8|

Outro:

E------------------------------------------------------------------|
B------------------------------------------------------------------|
G-----------------3-3-3-3-3-3-3-3-----------------3-3-3-3-3-3-3-3--|
D-3-3-3-3-3-3-3-3-3-3-3-3-3-3-3-3-3-3-3-3-3-3-3-3-3-3-3-3-3-3-3-3-3|
A-3-3-3-3-3-3-3-3-1-1-1-1-1-1-1-1-3-3-3-3-3-3-3-3-1-1-1-1-1-1-1-1-3|
E-1-1-1-1-1-1-1-1-----------------1-1-1-1-1-1-1-1-----------------1|


Order:

Intro
Verse
Chorus
Verse
Chorus
Bass Solo
Bridge
Intro
Chorus
Outro





Comments


Popular Rancid tabs & chords
11th Hour Bass Tabs
As Wicked Bass Tabs
Media Controller Bass Tabs
Midnight 1 Bass Tabs
Journey To The End Of The East Bay 1 Chords
Olympia Wa Chords
Journey To The End 2 Tabs
Let Me Go Tabs
Salvation 2 Tabs
The Botlle Ukulele


Song lyrics



↑ Back to top | Tablatures and chords are parodies/interpretations of the original songs. You may use it for private study, scholarship, research or language learning purposes only
© 2014 AZChords.com Contact us | Privacy policy | DMCA | Add/correct tabs | Request tabs | Top 50 tabs