» » »

Rancid, Start Now Bass tabs (ver.2)

Artists:  A B C D E F G H I J K L M N O P Q R S T U V W X Y Z # 

Start Now Bass tabs (ver.2)

Rancid Tabs
 Rating:
4/5 (4 votes)
Start Now  lessons Tabs too difficult? Try these video lessons and learn fast
                (2)
Bassist: Matt Freeman
Tuning: Standard

Verse             3x                  
G|-------|--------------------------|--------------------------|
D|-------|--------------------------|--------------------------|
A|---2-3-|-4-444-3-4-6------3---3-6-|------------------3---3-6-|
E|-4-----|-------------4-44---4-----|-6-666-5-6-8-4-44---4-----|

Prechorus
G|------------|
D|---------13-|
A|-4/8-/13----|
E|------------|

Chorus "I'm not lookin for a fight now"
G|-------------------------------------------------|
D|-----------------4-3-----------------------------|
A|-----3---3-4-6-6-----6-4-----4---4-6-4-4-3-4-3-6-|
E|-4-4---4-----------------6-6---6-----------------|

-verse (without the leadon)
-chorus 

Bridge
G|----8-----6-8---8-----6-----8-----6-8-|-------6-8-|---8-------------------------|
D|------6-8---------6-8---8-----6-8-----|-66666-----|-----6-8-6-5-6-5-------------|
A|-6------------6-----------6-----------|-----------|-6---------------8-6---------|
E|--------------------------------------|-----------|---------------------9-8-6-4-|

-chorus (only through the solo)

Here are the chorus variations
G|-----------------------------------------------------|
D|-------------------4-3-------------------------------|
A|------3---3-4-6-66-----6-4------4---4-6-4-44-3-4-3-6-|
E|-4-44---4------------------6-66---6------------------|

G|-----------------------------------------------------|
D|-------------------4-3-------------------------------|
A|------3---3-4-6-66-----6-4------8-6-4-3-4-44-3-4-3-6-|
E|-4-44---4------------------6-66----------------------|

G|-------------------------------------------------|
D|-----------------4-3-----------------------------|
A|-----3---3-4-6-6-----6-4-----4---4-6-4-4-3-4-3-6-|2x
E|-4-4---4-----------------6-6---6-----------------|

G|-----------------------------------------------------|
D|-------------------4-3-----------------------3-------|
A|------3---3-4-6-66-----6-4------4---4-6-4-44---6-4-3-|
E|-4-44---4------------------6-66---6------------------|

G|----------------------------------------------------|
D|-------------------4-3----------------3-4-6-3-------|
A|------3---3-4-6-66-----6-4------4---4---------6-4-3-|
E|-4-44---4------------------6-66---6-----------------|

G|-------------------------------------------------|
D|-----------------4-3-----------------------------|
A|-----3---3-4-6-6-----6-4-----4---4-6-4-4-3-4-3-6-|
E|-4-4---4-----------------6-6---6-----------------|

G|----------------------------------------------------|
D|-------------------4-3----------------3-4-6-3-------|
A|------3---3-4-6-66-----6-4------4---4---------6-4-3-|
E|-4-44---4------------------6-66---6-----------------|

fades out from there
            
Submit corrections

comments powered by Disqus
↑ Back to top | Rancid Bass for Start Now. Lyrics for acoustic guitar and electric guitar. Tablatures and chords are parodies/interpretations of the original songs. You may use it for private study, scholarship, research or language learning purposes only