» » »

Salvation Tabs (ver.3)

Artists:  A B C D E F G H I J K L M N O P Q R S T U V W X Y Z # 

Salvation Tabs (ver.3)

Rancid
Rating:
0/5 (0 votes)

Hard to play? Try these video lessons and learn fast.
                Allright, here´s all you need , just listen to the cd to get the song right
maybe there are a couple mistakes on the solo , but its accurate


CHORDS

     A    D    E 
e|---X----X----X----|  
B|---X----X----X----| 
G|---X----7----9----| 
D|---7----7----9----| 
A|---7----5----7----| 
E|---5----X----X----| 

PICK SLIDE= X\\\\\

CHORUS: 
A... X\\\\\\\\\\\\\\\\\\\\\\\\ 
Come on baby won't you show me what you got there 

D E 
I want your salvation whoah 

A... X\\\\\\\\\\\\\\\\\\\\\\\\ 
Come on baby won't you show me what you got there 

D E 
I want your salvation whoah 

VERSE: 
A D E D 
There's a neighborhood called Blackhawk where all the rich people 
hide 

A D 
I was down on my luck working for the Salvation Army 

E D 
The shelter is where I reside 

A D E D 
Everyday we drive into Blackhawk and pick up the offerings 

A D E D 
Microwave ovens refridgerators for the suffering 

CHORUS: 
A... X\\\\\\\\\\\\\\\\\\\\\\\\ 
Come on baby won't you show me what you got there 

D E 
I want your salvation whoah 

A... X\\\\\\\\\\\\\\\\\\\\\\\\ 
Come on baby won't you show me what you got there 

D E 
I want your salvation whoah 

VERSE: 
A D E D 
I can't believe these people live like kings 

A D E D 
Hidden estates and diamond rings 

A D E D 
I'm a ra-a-at out on a mission 

A D E D 
I'm in your front yard under suspicion 

CHORUS: 
A... X\\\\\\\\\\\\\\\\\\\\\\\\ 
Come on baby won't you show me what you got there 

D E 
I want your salvation whoah 

A... X\\\\\\\\\\\\\\\\\\\\\\\\ 
Come on baby won't you show me what you got there 

D E 
I want your salvation whoah 

SOLO: 
Note: 
h=hammer on 
f=full bend 
b=bend
r=release
p=pull off 

e|--------------------------------------------------------------------------| 
B|--------------------------------------------------------------------------| 
G|-7----------7----------7--9f-9f-9brp7------7-------7h9-7--9f-9frp7--------| 
D|------7h9--------7h9-------------------9------7h9------------------9------| 
A|--------------------------------------------------------------------------| 
E|--------------------------------------------------------------------------| 



CHORUS: 
A... X\\\\\\\\\\\\\\\\\\\\\\\\ 
Come on baby won't you show me what you got there 

D E 
I want your salvation whoah 

A... X\\\\\\\\\\\\\\\\\\\\\\\\ 
Come on baby won't you show me what you got there 

D E 
I want your salvation whoah 

VERSE: 
A D E D 
I can't believe these people live like kings 

A D E D 
Hidden estates and diamond rings 

A D E D 
I'm a ra-a-at out on a mission 

A D E D 
I'm in your front yard under suspicion 

CHORUS: 
A... X\\\\\\\\\\\\\\\\\\\\\\\\ 
Come on baby won't you show me what you got there 

D E 
I want your salvation whoah 

A... X\\\\\\\\\\\\\\\\\\\\\\\\ 
Come on baby won't you show me what you got there 

D E 
I want your salvation whoah 

SOLO: 

Note: 
h=hammer on 
f=full bend 
b=bend
r=release
p=pull off 

e|--------------------------------------------------------------------------| 
B|--------------------------------------------------------------------------| 
G|-7----------7----------7--9f-9f-9brp7------7-------7h9-7--9f-9frp7--------| 
D|------7h9--------7h9-------------------9------7h9------------------9------| 
A|--------------------------------------------------------------------------| 
E|--------------------------------------------------------------------------| 

CHORUS: 
A... X\\\\\\\\\\\\\\\\\\\\\\\\ 
Come on baby won't you show me what you got there 

D E 
I want your salvation whoah 

A... X\\\\\\\\\\\\\\\\\\\\\\\\ 
Come on baby won't you show me what you got there 

D E 
I want your salvation whoah 

A... X\\\\\\\\\\\\\\\\\\\\\\\\ 
Come on baby won't you show me what you got there 

D E 
I want your salvation whoah 

A... X\\\\\\\\\\\\\\\\\\\\\\\\ 
Come on baby won't you show me what you got there 

D E                   X\\\\\\\\\\\\\\\\\\\\\\\\ 
I want your salvation whoah 



that´s it !, just remember, listen to the cd to get it, I put everything, but
you´ll have figure the strumming
            
Hard to play? Try these video lessons and learn fast. | Correct




comments powered by Disqus
↑ Back to top | Tablatures and chords are parodies/interpretations of the original songs. You may use it for private study, scholarship, research or language learning purposes only