>
 >
Salvation

Salvation Bass Tabs

Rancid - Salvation chords, tabs, tablatures, lyrics

Guitar lessons | Add/correct | Request | Top 50 tabs Artists:  A B C D E F G H I J K L M N O P Q R S T U V W X Y Z 0-9

Salvation Bass Tabs – Rancid

CD, Sheet music, Poster

Do you like Salvation? Share with your friends now
Bass TabsBass Tabs v2ChordsDrum TabsTabsTabs v2Tabs v3Tabs v4Ukulele
Album:Let's Go
Bassist:Matt Freeman

This is a cool song by one of my favourite band of all time, the song isn't very hard 
it's catchy and groovy. I don't write how many times you have to play each part, but you 
hear that in the song.

   Intro/Chorus
G|--------------------------------------------------------|
D|--------------------------------------------------------|
A|--0----0-3-0--5-5-5-5-5-5-5-5-7-7-7-7-7-7-7-7-----------|
E|--------------------------------------------------------|


  Verse
G|-----------------------------------------------------------|
D|-----------------------------------------------------------|
A|--0--0-5-4-5-6-7--7-5-7-5-4-0--0-5-4-5-6-7--7-5-7-5-4-0----|
E|-----------------------------------------------------------|


   Chorus
G|--------------------------------------------------------|
D|--------------------------------------------------------|
A|--0----0-3-0--5-5-5-5-5-5-5-5-7-7-7-7-7-7-7-7-----------|
E|--------------------------------------------------------|

  Verse
G|-----------------------------------------------------------|
D|-----------------------------------------------------------|
A|--0--0-5-4-5-6-7--7-5-7-5-4-0--0-5-4-5-6-7--7-5-7-5-4-0----|
E|-----------------------------------------------------------|


  Chorus
G|--------------------------------------------------------|
D|--------------------------------------------------------|
A|--0----0-3-0--5-5-5-5-5-5-5-5-7-7-7-7-7-7-7-7-----------|
E|--------------------------------------------------------|


  After Chorus

G|-6h7-6--------------|      G|-6h7-6----------------------------|
D|-------7-6-7-6------|  X3  D|-------7-6-7-6--------------------|
A|---------------9-7--|      A|---------------9-7-7-7-7-7----7-9-|
E|--------------------|      E|---------------------------7-9----|


 Chorus
G|--------------------------------------------------------|
D|--------------------------------------------------------|
A|--0----0-3-0--5-5-5-5-5-5-5-5-7-7-7-7-7-7-7-7-----------|
E|--------------------------------------------------------|


  Verse
G|-----------------------------------------------------------|
D|-----------------------------------------------------------|
A|--0--0-5-4-5-6-7--7-5-7-5-4-0--0-5-4-5-6-7--7-5-7-5-4-0----|
E|-----------------------------------------------------------|


  Chorus
G|--------------------------------------------------------|
D|--------------------------------------------------------|
A|--0----0-3-0--5-5-5-5-5-5-5-5-7-7-7-7-7-7-7-7-----------|
E|--------------------------------------------------------|

  After Chorus

G|-6h7-6--------------|      G|-6h7-6----------------------------|
D|-------7-6-7-6------|  X3  D|-------7-6-7-6--------------------|
A|---------------9-7--|      A|---------------9-7-7-7-7-7----7-9-|
E|--------------------|      E|---------------------------7-9----|

  Chorus
G|--------------------------------------------------------|
D|--------------------------------------------------------|
A|--0----0-3-0--5-5-5-5-5-5-5-5-7-7-7-7-7-7-7-7-----------|
E|--------------------------------------------------------|





Comments


Popular Rancid tabs & chords
Blackhawk Down 1 Bass Tabs
Gunshot Bass Tabs
I Wanna Riot Bass Tabs
Radio Bass Tabs
Rigged On A Fix 2 Bass Tabs
Tenderloin Bass Tabs
Disorder And Disarray Chords
I Am Forever Tabs
Time Bomb 5 Tabs
Junkyard Ukulele


Song lyrics



↑ Back to top | Tablatures and chords are parodies/interpretations of the original songs. You may use it for private study, scholarship, research or language learning purposes only
© 2014 AZChords.com Contact us | Privacy policy | DMCA | Add/correct tabs | Request tabs | Top 50 tabs