» » »

Ruby Soho Tabs (ver.3)

Artists:  A B C D E F G H I J K L M N O P Q R S T U V W X Y Z # 

Ruby Soho Tabs (ver.3)

Rancid
Rating:
0/5 (0 votes)

Hard to play? Try these video lessons and learn fast.
                easy song I think its pretty much right

intro( let note ring)

e 3~--
b 3~--
g 0~--
d -----
a -----
e -----
 next part of intro also play during chourus, this is based off a G chord

e ---3-------3------3----3-----
b ---3-------3------3----3-----
g ---0-------0------0----0----          x4
d ---0-------0------0----0----
a --------2------3-------------
e 3--------------------3---------

verse, 8 times on each power chord, palm mute 

e ---------------------------------------------------
b ----------------------------------------------------
g 5--7-------5--5--7-----5--5--7------5--5-----7-----
d 5--5--5---5--5--5--5--5--5--7--5--5--5--5--7----
a 3--5--5---3--3--5--5--3--3--5--5--3--3--5--5---
e ------- 3-------------3------------3---------3-------


bridge

e ----------------------333-3333-3333-3333----
b ----------------------333-3333-3333-3333----
g 5-5-3/5-5-5-3/5---------------------------------
d 5-5-3/5-5-5-3/5---------------------------------
a 3-3-1/3-3-3-1/3---------------------------------
e ---------------------------------------------------

you can also play this in chourus(figure out strumming, i think it follows the words) 

e ------------------
b ------------------
g -----------------
d ---4---5-------
a 5--2--3---5----
e 3----------3----
            
Hard to play? Try these video lessons and learn fast. | Correct




comments powered by Disqus
↑ Back to top | Tablatures and chords are parodies/interpretations of the original songs. You may use it for private study, scholarship, research or language learning purposes only