» » »

Rancid, Rats In The Hallway Bass tabs (ver.2)

Artists:  A B C D E F G H I J K L M N O P Q R S T U V W X Y Z # 

Rats In The Hallway Bass tabs (ver.2)

Rancid Tabs
 Rating:
4/5 (4 votes)
Rats In The Hallway  lessons Tabs too difficult? Try these video lessons and learn fast
1
                (2)
Intro and Chorus (play as many times as neccesary) 
G:---------------------------------------------------------- 
D:---------------------------------------------------------- 
A:1-1-1-1-1-1-1----------------3->-------------------------- 
E:--------------1-1-1-1-1-1-1------------------------------- 

Little Solo (play as fast as you can) 
G:---------------------------------------------------------- 
D:3h5-5-5-3-5-3---------------------------------0-2-3---5--3 
A:--------------5-3--3-3-3-1-3-1------------1-3------------- 
E:-------------------------------3-1--1-2-3----------------- 


Verse (2 different verses, they alternate whenever you want) 
G:---------------------------------------------------------- 
D:---------5-3-3-3-3-3-3-5-------5-5-5-5-4-3-3-3-3-3-3-5---- 
A:3-3-3-3----------------------3---------------------------- 
E:---------------------------------------------------------- 

Bridge (repeat first part 4x, then hold the 3 for a while) 
G:---------------------------------------------------------- 
D:----------2-3-4-5-5-5-3--1-1-1-1--3----------------------- 
A:3-3-3-3-3----------------------------1-1-1-1-------------- 
E:---------------------------------------------------------- 

Other Verse (repeat first part a while, back to original verse) 
G:---------7-------8-------8----8-10-10-10------------------ 
D:10-10-10---10-10---10-10---10----------------------------- 
A:---------------------------------------------------------- 
E:---------------------------------------------------------- 

Pauses, then chorus, then your ***ing done. 
G:---------------------------------------------------------- 
D:---------------------------------------------------------- 
A:3---------3----------------------------------------------- 
E:----1--1-------------------------------------------------- 
one of few good rancid songs they sold out they are ona majar label
            
Submit corrections

comments powered by Disqus
↑ Back to top | Rancid Bass for Rats In The Hallway. Lyrics for acoustic guitar and electric guitar. 1 Tablatures and chords are parodies/interpretations of the original songs. You may use it for private study, scholarship, research or language learning purposes only