>
 >
Otherside 2

Otherside 2 Bass Tabs

Rancid - Otherside 2 chords, tabs, tablatures, lyrics

Guitar lessons | Add/correct | Request | Top 50 tabs Artists:  A B C D E F G H I J K L M N O P Q R S T U V W X Y Z 0-9

Otherside 2 Bass Tabs – Rancid

CD, Sheet music, Poster

Do you like Otherside 2? Share with your friends now
Bass TabsBass Tabs v2ChordsTabsTabs v2Ukulele
Intro
------------/--------------/-------------/------6-69-/-------------/
--------6-69/--------------/--------6-69-/7-7777-7---/--------6-69-/
-7-77777-7--/---------6-69-/7-777777-7---/-----------/7-777777-7---/
------------/-7-777777-7---/-------------/-----------/-------------/

--------------/
--------------/
---------6-69-/
-7-777777-7---/

----------------------------------------5-7-9-7-5----------------/
-7-77777-5-555555-7-777777-5-555555-5-7-----------7-5------------/
------------------------------------------------------765--------/
----------------------------------------------------------75-0---/

Verse
---------------/-------------/-------------/------------/
----------6-69-/-------------/--------6-69-/------------/
--7-77777--7---/--------6-69-/7-777777-7---/-------7777-/
---------------/7-777777-7---/-------------/-55-77------/

Chorus                           Bridge
--------------------------       ---------------------99--------|
--------------------------       -------------------7----7------|
-4-444-------------7-7776-       --------------77-9--------9-77-|
-------4-444-5-555--------       --55-77-55-77------------------|


The order of this song is very easy





Comments


Popular Rancid tabs & chords
As One Bass Tabs
Loki 2 Bass Tabs
Listed Mia Chords
Name Chords
Otherside Chords
Cash Culture And Violence Tabs
Loki Tabs
Memphis Intro Tabs
Seven Years Down Tabs
Something In The World Today 1 Tabs


Song lyrics



↑ Back to top | Tablatures and chords are parodies/interpretations of the original songs. You may use it for private study, scholarship, research or language learning purposes only
© 2014 AZChords.com Contact us | Privacy policy | DMCA | Add/correct tabs | Request tabs | Top 50 tabs