» » »

Old Friend Bass tabs (ver.1)

Artists:  A B C D E F G H I J K L M N O P Q R S T U V W X Y Z # 

Old Friend Bass tabs (ver.1)

Rancid
Rating:
0/5 (0 votes)

Hard to play? Try these video lessons and learn fast.
                "(2)
intro

G|---4--2---------------------|---4--2-----------------------|
D|---------4--2--0--0-2-4-2-0-|---------4--2--0--2-2-2-2-2-4-|
A|-2--------------------------|-2----------------------------|
E|----------------------------|------------------------------|

G|---4--2---------------------|-2--0-------------------------|
D|---------4--2--0--0-2-4-2-0-|-------4--0--2--0-------------|
A|-2--------------------------|-------------------4--3-------|
E|----------------------------|------------------------------| 

Chorus

G|------------------------------------------------|
D|------------------------------------------------|
A|-0--3--2--0-----------4-----0--2--4--5--4--2--0-| 
E|-------------0--2--4-----2----------------------|


verse 

G|---------------------------------|
D|---------------------------------|
A|---------7-7-7-7-9-9-9-9-5-5-5-7-| (x4)
E|-5-5-5-5-------------------------|

G|---------------------------------|
D|---------------------------------|
A|-------------------------5-5-5-5-| (x4)
E|-5-5-5-5-0-0-0-0-2-2-2-2---------|


song order =

intro x2
chorus x2
verse (4 times each section)
chorus x2
verse
chorus x2
intro x2
(gap)
chorus x2
verse
chorus x2
ending (same as 1st section of verse but with less notes last time)

thats it
"            
Hard to play? Try these video lessons and learn fast. | Correct




comments powered by Disqus
↑ Back to top | Tablatures and chords are parodies/interpretations of the original songs. You may use it for private study, scholarship, research or language learning purposes only