>
 >
New Orleans

New Orleans Bass Tabs

Rancid - New Orleans chords, tabs, tablatures, lyrics

Guitar lessons | Add/correct | Request | Top 50 tabs Artists:  A B C D E F G H I J K L M N O P Q R S T U V W X Y Z 0-9

New Orleans Bass Tabs – Rancid

CD, Sheet music, Poster

Do you like New Orleans? Share with your friends now
Bass TabsChordsUkulele
----------------------------------------------------------------------------- 
NEW ORLEANS - Rancid 
-----------------------------------------------------------------------------

Tuning: GDAE 

Intro/bridge:
 
G|-----------------------------------------| 
D|-----------------------------------------| 
A|-----------------------------------------| X3 
E|-4-444444-44442--------------------------|

G|-----------------------------------------| 
D|-----------------------------------------| 
A|-----------------------------------------| 
E|-4-4444444-444444------------------------|

Verse: 

G|-----------------------------------------| 
D|-------------4-4-------------------------| 
A|-4-444444-444----4-44444442-4-2----------| 
E|--------------2------------4---4---------| 

G|-----------------------------------------| 
D|------------------------8-6--------------| 
A|-4-444444-444---4-444444----864----------| 
E|-------------4-4-------------------------| 

G|-----------------------------------------| 
D|-------------4-4-------------------------| 
A|-4-444444-444----4-44444442-4-444--------| 
E|--------------2------------4-------------| 

G|-----------------------------------------| 
D|-----------------------------------------| 
A|----------------4-444444-444444----------| 
E|-4-444444-444444-------------------------| (play all one more time) 


Chorus: 

  Well she's got pride... 
G|-----------------------------------------| 
D|-6-6-4-4-3-3---------------6-86----------| 
A|-------------6-6-4-4444448-----8---------| X2 
E|-----------------------------------------| 

  She's got a smile... 
G|---------6>8-6---------------------------| 
D|-4-444444------8>6-4---------6>8-6-------| 
A|---------------------4-444444------8>6-4-| 
E|-----------------------------------------| 

  She's gotta walk... 
G|-----------------------------------------| 
D|-----------------------------------------| 
A|----------------4-444444-444444----------| 
E|-4-444444-444444-------------------------| 

Bridge; 

Verse; 

Chorus; 


Bridge; 

Slow Part: 

G|-----------------------------------------| 
D|------6>8-6----------------6-8-6---------| 
A|-4r---------8-6>4-4r---4--8------8----4r-| 
E|---------------------4-------------4r----| 

End: 

G|----------------------6------------------| 
D|-------------------6>8--8-6-4-3----------| 
A|-----------------4--------------6--------| X2 
E|-4-444444-444444-------------------------| 

G|-----------------------------------------| 
D|----------------6-666666-6666666---------| 
A|-----------------------------------------| 
E|-4-444444-444444-------------------------|

G|-6-4-------------------------------------| 
D|-----63-3>6-8-6--------------------------| 
A|----------------64-4-4-----4-------------| 
E|-----------------------4-4---------------| 



r = let ring 





Comments


Popular Rancid tabs & chords
As Wicked 2 Bass Tabs
Let Me Go Bass Tabs
Olympia Wa Bass Tabs
Young Al Capone 2 Bass Tabs
Animosity Chords
Black And Blue Tabs
Bloodclot 1 Tabs
Junkyard Tabs
Sidekick Tabs
Black Derby Jacket Ukulele


Song lyrics



↑ Back to top | Tablatures and chords are parodies/interpretations of the original songs. You may use it for private study, scholarship, research or language learning purposes only
© 2014 AZChords.com Contact us | Privacy policy | DMCA | Add/correct tabs | Request tabs | Top 50 tabs