» » »

Rancid, Midnight Bass tabs (ver.1)

Artists:  A B C D E F G H I J K L M N O P Q R S T U V W X Y Z # 

Midnight Bass tabs (ver.1)

Rancid Tabs
 Rating:
4/5 (4 votes)
Midnight lessons Tabs too difficult? Try these video lessons and learn fast
1
                Intro Part 1
G|---------------
D|---------------
A|4-4-4-4-4-4-4-4
E|---------------

Intro Part 2 X4
G|----------------------------
D|----------------------------
A|---------------3-3-333-33-44
E|-3-3-333-33-11--------------

Bass Solo thing
G|-------------0-3--55-53---3---------
D|---------0-3------------5---5-5-3---
A|-----1-3-------------------------5-3
E|-1-3--------------------------------

Verse
G|-----------------------------------------------------------------------------------
D|-----------------------------------------------------------------------------------
A|---------------------3-3333333---------------------------------3-3333333--5-5555555
E|3-3333333--1-1111111----------3-3333333-1-3-3333333--1-1111111---------------------

Chorus X2
G|----------------------------------------------
D|-3-4-55555555-4-33333333-5--------------------
A|---------------------------33333333-5---------
E|--------------------------------------33333333

Bass solo
Verse
Chorus X2
Bass solo

Bridge
G|----------------------------------------------------------------------
D|---------22222222-----------------------------22222222----------------
A|--------------------------3-5-3-2-3-0--------------------------3---2-0
E|-33333333--------11111111-------------33333333--------11111111--------

Part 2 X4
Part 1

End
E|-3-
            
Submit corrections

comments powered by Disqus
↑ Back to top | Rancid Bass for Midnight. Lyrics for acoustic guitar and electric guitar. 1 Tablatures and chords are parodies/interpretations of the original songs. You may use it for private study, scholarship, research or language learning purposes only