» » »

Rancid, Last One To Die Tabs (ver.2)

Artists:  A B C D E F G H I J K L M N O P Q R S T U V W X Y Z # 

Last One To Die Tabs (ver.2)

Rancid Tabs
 Rating:
4/5 (4 votes)
Last One To Die lessons Tabs too difficult? Try these video lessons and learn fast
1
                Intro

                             [x2]
e|-------|---------------------------------------|---|
B|-------|--333333333----------------------------|---|
G|-0-2-0-|--222222222-55555555----------55555555-|---|
D|-0-0-0-|--000000000-55555555-55555555-55555555-|-5-|
A|-------|------------33333030-55555555-33333030-|-5-|
E|-------|---------------------33333333----------|-3-|

Verse

e|-----------------------------------|
B|-----------------------------------|
G|----------55555555-77777777-55-----|
D|-55555555-55555555-77777777-55-55--|[x2]
A|-55555555-33333030-55555555-33-55--|
E|-33333333----------------------33--|

Chorus

e|------------------------------------|
B|------------------------------------|
G|----------55555555-77777777-5555555-|
D|-55555555-55555555-77777777-5555555-|[x2]
A|-55555555-33333030-55555555-3333333-|
E|-33333333---------------------------|

Verse

e|-----------------------------------|
B|-----------------------------------|
G|----------55555555-77777777-55-----|
D|-55555555-55555555-77777777-55-55--|[x2]
A|-55555555-33333030-55555555-33-55--|
E|-33333333----------------------33--|

Chorus

e|------------------------------------|
B|------------------------------------|
G|----------55555555-77777777-5555555-|
D|-55555555-55555555-77777777-5555555-|[x2]
A|-55555555-33333030-55555555-3333333-|
E|-33333333---------------------------|


e|---------------------------------------|---|
B|--333333333----------------------------|---|
G|--222222222-55555555----------55555555-|---|
D|--000000000-55555555-55555555-55555555-|-5-|[x2]
A|------------33333030-55555555-33333030-|-5-|
E|---------------------33333333----------|-3-|

Slolo

e|-------------------------------------|-------------------------|
B|-------------------------------------|------------------3------|
G|-----0------0------2---2/4-4-4-2-0-0-|-----0------2--2/4-4-2-0-|
D|-0/2----0/2------2-------------------|-0/2------2--------------|
A|-------------------------------------|-------------------------|
E|-------------------------------------|-------------------------|

e|------------------------------------|
B|------------------------------------|
G|----------55555555-77777777-5555555-|
D|-55555555-55555555-77777777-5555555-|[x2]
A|-55555555-33333030-55555555-3333333-|
E|-33333333---------------------------|

Chorus

e|------------------------------------|
B|------------------------------------|
G|----------55555555-77777777-5555555-|
D|-55555555-55555555-77777777-5555555-|[x2]
A|-55555555-33333030-55555555-3333333-|
E|-33333333---------------------------|



e|-------------------------------------|-------------------------------------|
B|-------------------------------------|-------------------------------------|
G|----------55555555-77777777-55555555-|----------55555555-77777777-55555555-|
D|-55555555-55555555-77777777-55555555-|-55555555-55555555-77777777-55555555-|
A|-55555555-33333030-55555555-33333333-|-55555555-33333030-55555555-33333330-|
E|-33333333----------------------------|-33333333----------------------------|

End

e|---|
B|---|
G|---|
D|-5-|
A|-5-|
E|---|


Guitar Tab by M0rRiz
            
Submit corrections

comments powered by Disqus
↑ Back to top | Rancid Tabs for Last One To Die. Lyrics for acoustic guitar and electric guitar. 1 Tablatures and chords are parodies/interpretations of the original songs. You may use it for private study, scholarship, research or language learning purposes only