>
 >
Journey To The End Of The East Bay 3

Journey To The End Of The East Bay 3 Bass Tabs

Rancid - Journey To The End Of The East Bay 3 chords, tabs, tablatures, lyrics

Guitar lessons | Add/correct | Request | Top 50 tabs Artists:  A B C D E F G H I J K L M N O P Q R S T U V W X Y Z 0-9

Journey To The End Of The East Bay 3 Bass Tabs – Rancid

CD, Sheet music, Poster

Do you like Journey To The End Of The East Bay 3? Share with your friends now
Bass TabsBass Tabs v2Bass Tabs v3ChordsChords v2TabsTabs v2Tabs v3Ukulele
------------------------------------------------------------------------------
			    Journey to the End of the East Bay
-------------------------------------------------------------------------------


Tuning:

G|--------------4---4---4------6-9-----------------------------------------------|
D|----2-3-4-5-5---5---5---5--7-----7--3------------------------------------------|
A|--3-------------------------------------0-1-2----------------------------------|
E|--------------------------------------1----------------------------------------|

G|---------------------------------------------|
D|---2-3-4-5-55555555--3------------2p0--------|
A|-3-----------------------0-1-2-3-----2p0-----|
E|-----------------------1----------------3p0--|
Same thing except at end instead of pull-offs play
G|-----------------------|
D|-3333--1111-0000-------|
A|-----------------3333--|
E|-----------------------|
play whole thing twice and then play verse as follows
G|-------------------------------------|
D|-------------------------------------|
A|-3333333-----------------------------|
E|---------33333333-55555555-11111111--|
play 4 times and then chorus
G|-------------2222---------------------------------------------------------------------|
D|----3-5-5-55------3333----------------------------------------------------------------|
A|--3-----------------------------------------------------------------------------------|
E|--------------------------------------------------------------------------------------|
outro is just the verse

| /  slide up
| \  slide down
| h  hammer-on
| p  pull-off
| ~  vibrato
| +  harmonic
| x  Mute note
==========================================================





Comments


Popular Rancid tabs & chords
Bloodclot 1 Bass Tabs
Ggf 1 Bass Tabs
Hyena 3 Bass Tabs
Shes Automatic 2 Bass Tabs
Rats In The Hallway Chords
Fall Back Down 4 Tabs
Hooligans Tabs
Last One To Die Tabs
Back Up Against The Wall Ukulele
Junkyard Ukulele


Song lyrics



↑ Back to top | Tablatures and chords are parodies/interpretations of the original songs. You may use it for private study, scholarship, research or language learning purposes only
© 2014 AZChords.com Contact us | Privacy policy | DMCA | Add/correct tabs | Request tabs | Top 50 tabs