» » »

Rancid, I Wanna Riot Tabs (ver.3)

Artists:  A B C D E F G H I J K L M N O P Q R S T U V W X Y Z # 

I Wanna Riot Tabs (ver.3)

Rancid Tabs
 Rating:
4/5 (4 votes)
I Wanna Riot lessons Tabs too difficult? Try these video lessons and learn fast
1
                D    F    G      D  D    F    G		      __
e|--2----1----3------2--2----1----3----|	        |
B|--3----1----3------3--3----1----3----|	        |
G|--2----2----4------2--2----2----4----|	        |
D|--0----3----5------0--0----3----5----| rep. (xtimes)  |
A|-------------------------------------|	        |
E|-------------------------------------|	        |						        |
Probably the right way:				        |
e|-------------------------------------|	        |
B|-------------------------------------|	        |
G|--11---14---16-----11-11---14---16---|	         \
D|--12---15---17-----12-12---15---17---| rep. (xtimes)    > Same thing
A|--12---15---17-----12-12---15---17---|		 /
E|--10---13---15-----10-10---13---15---|	        |						        |
Alternate right way:				        |
e|-------------------------------------|	        |
B|--7----10---12-----7--7----10---12---|	        |
G|--7----10---12-----7--7----10---12---|	        |
D|--7----10---12-----7--7----10---12---| rep. (xtimes)  |
A|--5----8----10-----5--5----8----10---|	        |
E|-------------------------------------|	      __|
            
Submit corrections

comments powered by Disqus
↑ Back to top | Rancid Tabs for I Wanna Riot. Lyrics for acoustic guitar and electric guitar. 1 Tablatures and chords are parodies/interpretations of the original songs. You may use it for private study, scholarship, research or language learning purposes only