>
 >
Hyena 1

Hyena 1 Guitar Tabs

Rancid - Hyena 1 chords, tabs, tablatures, lyrics

Guitar lessons | Add/correct | Request | Top 50 tabs Artists:  A B C D E F G H I J K L M N O P Q R S T U V W X Y Z 0-9

Hyena 1 Guitar Tabs – Rancid

CD, Sheet music, Poster

Do you like Hyena 1? Share with your friends now
Bass TabsBass Tabs v2Bass Tabs v3ChordsTabsTabs v2Tabs v3Ukulele
			  HYENA - Rancid

Corrected by: Johnny Arson 
Standard Tuning (EADGBe)

i felt like tabbing so i did for one of my favorite songs. im 100% sure that this 
is the right tab for hyena. i got the whole song down except for the solo(its pretty 
tricky), but i workin on it. im only writing down the chords to play. so you're gonna 
have to figure out the beat, enjoy!
 
Intro: 
|----------------------|
|----------------------|
|----------------------|
|-5=(ring out)==/10/12-| 
|-5=============/10/12-|
|-3==============/8/10-|

Intro:
|-----------------|
|-----------------|
|---8---8---8-5-7-|
|-5-8-5-8-5-8-5-7-| 2X
|-5-6-5-6-5-6-3-5-|
|-3---3---3-------|

Verse 1:
|------------|
|------------|
|----4/5-4/5-|
|-5--4/5-4/5-| 9X
|-5--2/3-2/3-|
|-3----------|

Chorus:
|--------------------|
|--------------------|
|---5-3-----5-33-5---|
|-3-5-3-3-3-5-33-5-3-| 2X
|-3-3-1-3-3-3-11-3-3-|
|-1-----1-1--------1-|

Verse 2:
|------------|
|------------|
|----4/5-4/5-|
|-5--4/5-4/5-| 9X
|-5--2/3-2/3-|
|-3----------|

Chorus:
|--------------------|
|--------------------|
|---5-3-----5-33-5---|
|-3-5-3-3-3-5-33-5-3-| 2X
|-3-3-1-3-3-3-11-3-3-|
|-1-----1-1--------1-|

Interlude:
|------------------|    |-------------|    |------------------|
|------------------|    |-------------|    |------------------|
|------------------|\   |---------3-3-|\   |------------------|\
|---------1111-----|>3X |---------1-3-|>1X |---------1111-----|>4X 
|-------------1111-|/   |-----------1-|/   |-------------1111-|/
|-11111111---------|    |-11111111----|    |-11111111---------| 
  ****************        ********           **************** 
  [p.m.]  

|-------| 
|-------| 
|-8-----| 
|-8---8-| 
|-6---8-| 
|-----6-| 

(Solo plays here)

Verse 2:
|------------|
|------------|
|----4/5-4/5-|
|-5--4/5-4/5-| 9X
|-5--2/3-2/3-|
|-3----------|

Chorus:
|--------------------|
|--------------------|
|---5-3-----5-33-5---|
|-3-5-3-3-3-5-33-5-3-| 2X
|-3-3-1-3-3-3-11-3-3-|
|-1-----1-1--------1-|

Ends on:
|-----------|
|-----------|
|---5-3-5---|
|-3-5-3-5-3-| 2X
|-3-3-1-3-3-|
|-1-------1-|





Comments


Popular Rancid tabs & chords
Cocktails Bass Tabs
Midnight 3 Bass Tabs
Sidekick Bass Tabs
Old Friend Chords
Cocktails Tabs
Daly City Train 2 Tabs
East Bay Night Tabs
Ghetto Box Tabs
Poison Tabs
Time Bomb 4 Tabs


Song lyrics



↑ Back to top | Tablatures and chords are parodies/interpretations of the original songs. You may use it for private study, scholarship, research or language learning purposes only
© 2014 AZChords.com Contact us | Privacy policy | DMCA | Add/correct tabs | Request tabs | Top 50 tabs