» » »

Rancid, Ghetto Box Tabs (ver.1)

Artists:  A B C D E F G H I J K L M N O P Q R S T U V W X Y Z # 

Ghetto Box Tabs (ver.1)

Rancid Tabs
 Rating:
4/5 (4 votes)
Ghetto Box lessons Tabs too difficult? Try these video lessons and learn fast
1
                this song rules!

INTRO:
e:----------------
B:----------------
G:----7-----8-8-8-
D:-7--7--7--8-8-8-  x2
A:-7--5--7--6-6-6-
E:-5-----5--------
               Hey!

VERSE
e:-------------------
B:-------------------
G:----------77779999-
D:-77777777-77779999-  x4
A:-77777777-55557777-
E:-55555555----------
   A                        D             E
My ghetto box is talkin' (attack from the backstreets)...etc.

CHORUS
e:------------------------------------------------------------------
B:------------------------------------------------------------------
G:-------------------------------------77777777-99999999--------9-9-
D:-77777777-99999999----------77777777-77777777-99999999-777777-9-9-
A:-55555555-77777777-77777777-55555555-55555555-77777777-777777-7-7-
E:-------------------55555555----------------------------555555-----
   ******** ******** ******** ********
    D(pm)                  E(pm)
Let go of my hand, I don't understand
A(pm)            D(pm)
Street lights coming through
D               E                A     E  
Attack from the backstreets with you


VERSE
CHORUS
INTRO

SOLO
Guitar 1 (tim)
e:--------------------------------------------------------
B:--------------------------------------------------------
G:-22222-777666--99999-777666--22222-777666--99999-777666-
D:-22222-777777--99999-777777--22222-777777--99999-777777-
A:--------------------------------------------------------
E:--------------------------------------------------------
cont.
e:-222222-444444-000000-222222--222222-444444-555555-0000\-
B:-333333-555555-000000-333333--333333-555555-555555-0000\-
G:---------------------------------------------------------
D:---------------------------------------------------------
A:---------------------------------------------------------
E:---------------------------------------------------------

Guitar 2 (lars) - 
e:-------------------    ----------------------------------------------------------
B:-------------------    ----------------------------------------------------------
G:----------77779999-    -777777-999999--------777777--777777-999999--------999999-
D:-77777777-77779999- x4 -777777-999999-777777-777777--777777-999999-777777-999999-
A:-77777777-55557777-    -555555-777777-777777-555555--555555-777777-777777-777777-
E:-55555555----------    ---------------555555-----------------------555555--------

VERSE - just bass
 
CHORUS - same chords but with no palm muting

OUTRO - intro x1 then finish on A
            
Submit corrections

comments powered by Disqus
↑ Back to top | Rancid Tabs for Ghetto Box. Lyrics for acoustic guitar and electric guitar. 1 Tablatures and chords are parodies/interpretations of the original songs. You may use it for private study, scholarship, research or language learning purposes only