» » »

Disgruntled Bass tabs (ver.1)

Artists:  A B C D E F G H I J K L M N O P Q R S T U V W X Y Z # 

Disgruntled Bass tabs (ver.1)

Rancid
Rating:
0/5 (0 votes)

Hard to play? Try these video lessons and learn fast.
                VERSE

G:---------------
D:---------------
A:---0--8----
E:----------------

CHORUS/BRIDGE

G:---------------------------------------------------------      
D:-----------------5-5-5-5-5-8-8-8-8-8-5-5-5-5-5--      
A:---7-7-7-7-7------------------------------------------      
E:---------------------------------------------------------      

G:---5---5-5---4---4-4---
D:---------------------------       x4
A:----------------------------
E:----------------------------
            
Hard to play? Try these video lessons and learn fast. | Correct




comments powered by Disqus
↑ Back to top | Tablatures and chords are parodies/interpretations of the original songs. You may use it for private study, scholarship, research or language learning purposes only