>
 >
Detroit

Detroit Bass Tabs

Rancid - Detroit chords, tabs, tablatures, lyrics

Guitar lessons | Add/correct | Request | Top 50 tabs Artists:  A B C D E F G H I J K L M N O P Q R S T U V W X Y Z 0-9

Detroit Bass Tabs – Rancid

CD, Sheet music, Poster

Do you like Detroit? Share with your friends now
Bass TabsBass Tabs v2Bass Tabs v3ChordsTabsUkulele
Intro:
G|--9-7-9-7-----9------6----|
D|----------9-6---66-7---99-|
A|-7------------------------|
E|--------------------------|


Verse:
|-------------------------|
|------4---6--77-55-44----|
|--47-5-5-7-7----------77-|
|-5-----------------------|


Chorus:
|--5-----------------------------|
|-7-765-----5--------------------|
|------753-7-7653--5-5-33-5-5-33-|
|----------------53--------------|


Post-Chorus
|-------------------|-------------|
|------6------------|------6------|
|--4--7-7-5555-5555-|--45-7-7-5-7-|
|-5-5---------------|-5-----------|


Bridge:
|---------------------|
|---------------------|
|-----------5555-3333-|
|-5555-3333-----------|

Sorry, I don't have the order, my friend has my headphones so I can't listen to it.  
have it on soon though.





Comments


Popular Rancid tabs & chords
11th Hour Bass Tabs
As Wicked Bass Tabs
Blackhawk Down Bass Tabs
Corazon De Oro 1 Bass Tabs
Endrina Bass Tabs
Ivory Coast 3 Bass Tabs
Maxwell Murder 5 Bass Tabs
Stickin' In My Eye 2 Bass Tabs
White Knuckle Ride Bass Tabs
Avenues And Alleyways 1 Tabs


Song lyrics



↑ Back to top | Tablatures and chords are parodies/interpretations of the original songs. You may use it for private study, scholarship, research or language learning purposes only
© 2014 AZChords.com Contact us | Privacy policy | DMCA | Add/correct tabs | Request tabs | Top 50 tabs