» » »

Corazon De Oro Bass tabs (ver.3)

Artists:  A B C D E F G H I J K L M N O P Q R S T U V W X Y Z # 

Corazon De Oro Bass tabs (ver.3)

Rancid
Rating:
0/5 (0 votes)

Hard to play? Try these video lessons and learn fast.
                Chorus                                   End Chorus
G ---------------------------------      G ---------------
D -----------------2-0-----0-------      D ---------------
A ---2-5-232-0-2-3-----3-2---3-2-0- X3   A ---2-3>-3-5----
E -3-------------------------------      E -3----------3>-

Verse
G ----------------------------------------------
D ----------------------------------------------
A -3-2-0-32---2-5-02-------02-5-3-2-02-3-2-0-02-
E ----------3--------3-4-5----------------------

G -----------------------------
D -----------------------------
A ---2-5-02--------02-5-3-2-02- X2
E -3--------3-4-5--------------

Stick
G -----------------
D -------3-5-3-----
A -3-4-5-------5-3-
E -----------------

PAUSE

And Then 
The Stick
Chorus X3
End Chorus x2

G -------------------------------------3-5-----------------
D -------3-4-5-0-2-0-5-4-3-------3-4-5-----7-6-5-----------
A -3-4-5-------------------3-4-5-----------------7-6-5-----
E -----------------------------------------------------7-5-

And Then
Chorus X3
End Chorus x2

G ---------9-7-----------14-12------------------------
D ---9-7-9-----9-7-------------14-12------------------
A -7---------------5-6-7-------------14-12-9-11-9-7-9-
E ----------------------------------------------------

G -----------------------14-12------------------------
D ---9-------------------------14-12------------------
A -7---7-5-7-7-7-7-9-7-6-------------14-12-9-11-9-7-9-
E ----------------------------------------------------

G ---14-14-12----------------------14-12------------------------
D -9----------14-12-12-------------------14-14-12------------12-
A ---------------------14-12-10-12---------------14-12-10-12----
E --------------------------------------------------------------

G ---------------------------------------------5-6-7-8-----------------
D -------3-4-5-0-2-0-5-4-3---------3-4-5-6-7-8---------7-6-5-----------
A -3-4-5-------------------5-3-4-5---------------------------7-6-5-----
E -----------------------------------------------------------------7-5-

And Then
Chorus X3
End Chorus x2 And this is also the outro

Listen cerfully the rytm especelly during the solo.
            
Hard to play? Try these video lessons and learn fast. | Correct




comments powered by Disqus
↑ Back to top | Tablatures and chords are parodies/interpretations of the original songs. You may use it for private study, scholarship, research or language learning purposes only